  0
SECTION
  2
HEADER
  9
$ACADVER
  1
AC1009
  0
ENDSEC
  0
SECTION
  2
BLOCKS
  0
ENDSEC
  0
SECTION
  2
ENTITIES
  0
LINE
  8
CutLine
  6
CONTINUOUS
 62
8
 10
251.178883
 20
1277.668013
 11
251.293621
 21
1270.597876
  0
LINE
  8
CutLine
  6
CONTINUOUS
 62
8
 10
251.293621
 20
1270.597876
 11
237.021915
 21
1255.855312
  0
LINE
  8
CutLine
  6
CONTINUOUS
 62
8
 10
237.021915
 20
1255.855312
 11
229.951779
 21
1255.740574
  0
LINE
  8
CutLine
  6
CONTINUOUS
 62
8
 10
235.401193
 20
1299.977154
 11
242.370526
 21
1298.781994
  0
LINE
  8
CutLine
  6
CONTINUOUS
 62
8
 10
242.370526
 20
1298.781994
 11
252.374043
 21
1284.637345
  0
LINE
  8
CutLine
  6
CONTINUOUS
 62
8
 10
252.374043
 20
1284.637345
 11
251.178883
 21
1277.668013
  0
LINE
  8
CutLine
  6
CONTINUOUS
 62
8
 10
197.104295
 20
1302.562655
 11
190.352686
 21
1300.461279
  0
LINE
  8
CutLine
  6
CONTINUOUS
 62
8
 10
190.352686
 20
1300.461279
 11
156.924736
 21
1318.020073
  0
LINE
  8
CutLine
  6
CONTINUOUS
 62
8
 10
156.924736
 20
1318.020073
 11
154.823360
 21
1324.771681
  0
LINE
  8
CutLine
  6
CONTINUOUS
 62
8
 10
169.197646
 20
1346.971665
 11
175.812840
 21
1349.469508
  0
LINE
  8
CutLine
  6
CONTINUOUS
 62
8
 10
175.812840
 20
1349.469508
 11
205.516748
 21
1336.049017
  0
LINE
  8
CutLine
  6
CONTINUOUS
 62
8
 10
205.516748
 20
1336.049017
 11
208.014590
 21
1329.433824
  0
LINE
  8
CutLine
  6
CONTINUOUS
 62
8
 10
154.823360
 20
1324.771681
 11
153.343870
 21
1331.686239
  0
LINE
  8
CutLine
  6
CONTINUOUS
 62
8
 10
153.343870
 20
1331.686239
 11
162.283088
 21
1345.492176
  0
LINE
  8
CutLine
  6
CONTINUOUS
 62
8
 10
162.283088
 20
1345.492176
 11
169.197646
 21
1346.971665
  0
LINE
  8
CutLine
  6
CONTINUOUS
 62
8
 10
215.952336
 20
1279.774604
 11
208.912717
 21
1280.440761
  0
LINE
  8
CutLine
  6
CONTINUOUS
 62
8
 10
208.912717
 20
1280.440761
 11
196.438138
 21
1295.523036
  0
LINE
  8
CutLine
  6
CONTINUOUS
 62
8
 10
196.438138
 20
1295.523036
 11
197.104295
 21
1302.562655
  0
LINE
  8
CutLine
  6
CONTINUOUS
 62
8
 10
415.864767
 20
853.808253
 11
420.688161
 21
858.978831
  0
LINE
  8
CutLine
  6
CONTINUOUS
 62
8
 10
420.688161
 20
858.978831
 11
464.297011
 21
860.493771
  0
LINE
  8
CutLine
  6
CONTINUOUS
 62
8
 10
464.297011
 20
860.493771
 11
469.467588
 21
855.670377
  0
LINE
  8
CutLine
  6
CONTINUOUS
 62
8
 10
415.592786
 20
853.466583
 11
415.864767
 21
853.808253
  0
LINE
  8
CutLine
  6
CONTINUOUS
 62
8
 10
475.589125
 20
844.105951
 11
478.240762
 21
839.779799
  0
LINE
  8
CutLine
  6
CONTINUOUS
 62
8
 10
469.467588
 20
855.670377
 11
476.225853
 21
853.590508
  0
LINE
  8
CutLine
  6
CONTINUOUS
 62
8
 10
476.225853
 20
853.590508
 11
477.668994
 21
850.864215
  0
LINE
  8
CutLine
  6
CONTINUOUS
 62
8
 10
477.668994
 20
850.864215
 11
475.589125
 21
844.105951
  0
LINE
  8
CutLine
  6
CONTINUOUS
 62
8
 10
477.428888
 20
855.259801
 11
488.829578
 21
855.279262
  0
LINE
  8
CutLine
  6
CONTINUOUS
 62
8
 10
488.829578
 20
855.279262
 11
538.846552
 21
830.976329
  0
LINE
  8
CutLine
  6
CONTINUOUS
 62
8
 10
538.846552
 20
830.976329
 11
541.158603
 21
824.293932
  0
LINE
  8
CutLine
  6
CONTINUOUS
 62
8
 10
541.158603
 20
824.293932
 11
543.508961
 21
817.624913
  0
LINE
  8
CutLine
  6
CONTINUOUS
 62
8
 10
543.508961
 20
817.624913
 11
543.317457
 21
817.224964
  0
LINE
  8
CutLine
  6
CONTINUOUS
 62
8
 10
543.317457
 20
817.224964
 11
536.648437
 21
814.874606
  0
LINE
  8
CutLine
  6
CONTINUOUS
 62
8
 10
536.648437
 20
814.874606
 11
537.588945
 21
811.059423
  0
LINE
  8
CutLine
  6
CONTINUOUS
 62
8
 10
547.191344
 20
819.689494
 11
554.246949
 21
819.222106
  0
LINE
  8
CutLine
  6
CONTINUOUS
 62
8
 10
554.246949
 20
819.222106
 11
590.883183
 21
777.387706
  0
LINE
  8
CutLine
  6
CONTINUOUS
 62
8
 10
590.883183
 20
777.387706
 11
593.871833
 21
766.385702
  0
LINE
  8
CutLine
  6
CONTINUOUS
 62
8
 10
608.711866
 20
706.619315
 11
604.537265
 21
700.912066
  0
LINE
  8
CutLine
  6
CONTINUOUS
 62
8
 10
604.537265
 20
700.912066
 11
604.043768
 21
700.835526
  0
LINE
  8
CutLine
  6
CONTINUOUS
 62
8
 10
604.043768
 20
700.835526
 11
598.336519
 21
705.010127
  0
LINE
  8
CutLine
  6
CONTINUOUS
 62
8
 10
596.368001
 20
758.814699
 11
602.384508
 21
755.099642
  0
LINE
  8
CutLine
  6
CONTINUOUS
 62
8
 10
602.384508
 20
755.099642
 11
612.426923
 21
712.635822
  0
LINE
  8
CutLine
  6
CONTINUOUS
 62
8
 10
612.426923
 20
712.635822
 11
608.711866
 21
706.619315
  0
LINE
  8
CutLine
  6
CONTINUOUS
 62
8
 10
598.336519
 20
705.010127
 11
595.352822
 21
698.599390
  0
LINE
  8
CutLine
  6
CONTINUOUS
 62
8
 10
595.352822
 20
698.599390
 11
591.173302
 21
697.074723
  0
LINE
  8
CutLine
  6
CONTINUOUS
 62
8
 10
591.173302
 20
697.074723
 11
584.762564
 21
700.058420
  0
LINE
  8
CutLine
  6
CONTINUOUS
 62
8
 10
578.725976
 20
763.085305
 11
583.598376
 21
761.668797
  0
LINE
  8
CutLine
  6
CONTINUOUS
 62
8
 10
583.598376
 20
761.668797
 11
589.568605
 21
765.457776
  0
LINE
  8
CutLine
  6
CONTINUOUS
 62
8
 10
589.568605
 20
765.457776
 11
592.579022
 21
764.784928
  0
LINE
  8
CutLine
  6
CONTINUOUS
 62
8
 10
592.579022
 20
764.784928
 11
596.368001
 21
758.814699
  0
LINE
  8
CutLine
  6
CONTINUOUS
 62
8
 10
279.194375
 20
923.133835
 11
274.349527
 21
917.983355
  0
LINE
  8
CutLine
  6
CONTINUOUS
 62
8
 10
274.349527
 20
917.983355
 11
269.835552
 21
917.845329
  0
LINE
  8
CutLine
  6
CONTINUOUS
 62
8
 10
269.835552
 20
917.845329
 11
264.685073
 21
922.690177
  0
LINE
  8
CutLine
  6
CONTINUOUS
 62
8
 10
289.599542
 20
924.027034
 11
285.045500
 21
918.617718
  0
LINE
  8
CutLine
  6
CONTINUOUS
 62
8
 10
285.045500
 20
918.617718
 11
284.603691
 21
918.579792
  0
LINE
  8
CutLine
  6
CONTINUOUS
 62
8
 10
284.603691
 20
918.579792
 11
279.194375
 21
923.133835
  0
LINE
  8
CutLine
  6
CONTINUOUS
 62
8
 10
283.805365
 20
994.644233
 11
289.197497
 21
990.069858
  0
LINE
  8
CutLine
  6
CONTINUOUS
 62
8
 10
289.197497
 20
990.069858
 11
294.173918
 21
929.419166
  0
LINE
  8
CutLine
  6
CONTINUOUS
 62
8
 10
294.173918
 20
929.419166
 11
289.599542
 21
924.027034
  0
LINE
  8
CutLine
  6
CONTINUOUS
 62
8
 10
264.685073
 20
922.690177
 11
259.612163
 21
918.100297
  0
LINE
  8
CutLine
  6
CONTINUOUS
 62
8
 10
259.612163
 20
918.100297
 11
255.379717
 21
923.475036
  0
LINE
  8
CutLine
  6
CONTINUOUS
 62
8
 10
258.384848
 20
989.214659
 11
258.641721
 21
989.326551
  0
LINE
  8
CutLine
  6
CONTINUOUS
 62
8
 10
105.465266
 20
1138.053241
 11
107.170348
 21
1144.915653
  0
LINE
  8
CutLine
  6
CONTINUOUS
 62
8
 10
107.170348
 20
1144.915653
 11
130.983999
 21
1159.250631
  0
LINE
  8
CutLine
  6
CONTINUOUS
 62
8
 10
130.983999
 20
1159.250631
 11
137.846410
 21
1157.545548
  0
LINE
  8
CutLine
  6
CONTINUOUS
 62
8
 10
135.146528
 20
1113.580993
 11
128.107947
 21
1112.903954
  0
LINE
  8
CutLine
  6
CONTINUOUS
 62
8
 10
128.107947
 20
1112.903954
 11
106.142305
 21
1131.014661
  0
LINE
  8
CutLine
  6
CONTINUOUS
 62
8
 10
106.142305
 20
1131.014661
 11
105.465266
 21
1138.053241
  0
LINE
  8
CutLine
  6
CONTINUOUS
 62
8
 10
137.846410
 20
1157.545548
 11
138.896118
 21
1157.366702
  0
LINE
  8
CutLine
  6
CONTINUOUS
 62
8
 10
161.910060
 20
1080.698234
 11
154.875913
 21
1081.419881
  0
LINE
  8
CutLine
  6
CONTINUOUS
 62
8
 10
154.875913
 20
1081.419881
 11
134.424881
 21
1106.546846
  0
LINE
  8
CutLine
  6
CONTINUOUS
 62
8
 10
134.424881
 20
1106.546846
 11
135.146528
 21
1113.580993
  0
LINE
  8
CutLine
  6
CONTINUOUS
 62
8
 10
182.848225
 20
1091.984483
 11
180.819340
 21
1085.210737
  0
LINE
  8
CutLine
  6
CONTINUOUS
 62
8
 10
180.819340
 20
1085.210737
 11
168.683805
 21
1078.669349
  0
LINE
  8
CutLine
  6
CONTINUOUS
 62
8
 10
168.683805
 20
1078.669349
 11
161.910060
 21
1080.698234
  0
LINE
  8
CutLine
  6
CONTINUOUS
 62
8
 10
362.029478
 20
823.788663
 11
356.402477
 21
828.070819
  0
LINE
  8
CutLine
  6
CONTINUOUS
 62
8
 10
356.402477
 20
828.070819
 11
355.845081
 21
832.177852
  0
LINE
  8
CutLine
  6
CONTINUOUS
 62
8
 10
355.845081
 20
832.177852
 11
360.127237
 21
837.804853
  0
LINE
  8
CutLine
  6
CONTINUOUS
 62
8
 10
360.672073
 20
849.735610
 11
365.292256
 21
855.088544
  0
LINE
  8
CutLine
  6
CONTINUOUS
 62
8
 10
365.292256
 20
855.088544
 11
410.196398
 21
858.387766
  0
LINE
  8
CutLine
  6
CONTINUOUS
 62
8
 10
410.196398
 20
858.387766
 11
415.549332
 21
853.767583
  0
LINE
  8
CutLine
  6
CONTINUOUS
 62
8
 10
360.127237
 20
837.804853
 11
355.360537
 21
843.027743
  0
LINE
  8
CutLine
  6
CONTINUOUS
 62
8
 10
355.360537
 20
843.027743
 11
355.449183
 21
844.968910
  0
LINE
  8
CutLine
  6
CONTINUOUS
 62
8
 10
355.449183
 20
844.968910
 11
360.672073
 21
849.735610
  0
LINE
  8
CutLine
  6
CONTINUOUS
 62
8
 10
319.395392
 20
1035.047800
 11
312.639680
 21
1037.135948
  0
LINE
  8
CutLine
  6
CONTINUOUS
 62
8
 10
312.639680
 20
1037.135948
 11
311.732684
 21
1038.854478
  0
LINE
  8
CutLine
  6
CONTINUOUS
 62
8
 10
311.732684
 20
1038.854478
 11
313.820831
 21
1045.610190
  0
LINE
  8
CutLine
  6
CONTINUOUS
 62
8
 10
370.763366
 20
1054.773474
 11
367.888110
 21
1048.313373
  0
LINE
  8
CutLine
  6
CONTINUOUS
 62
8
 10
367.888110
 20
1048.313373
 11
325.855493
 21
1032.172544
  0
LINE
  8
CutLine
  6
CONTINUOUS
 62
8
 10
325.855493
 20
1032.172544
 11
319.395392
 21
1035.047800
  0
LINE
  8
CutLine
  6
CONTINUOUS
 62
8
 10
313.820831
 20
1045.610190
 11
307.549831
 21
1048.877385
  0
LINE
  8
CutLine
  6
CONTINUOUS
 62
8
 10
307.549831
 20
1048.877385
 11
306.304849
 21
1052.830665
  0
LINE
  8
CutLine
  6
CONTINUOUS
 62
8
 10
306.304849
 20
1052.830665
 11
309.572044
 21
1059.101665
  0
LINE
  8
CutLine
  6
CONTINUOUS
 62
8
 10
300.388822
 20
1083.781037
 11
302.311053
 21
1087.006824
  0
LINE
  8
CutLine
  6
CONTINUOUS
 62
8
 10
324.704021
 20
1095.095821
 11
348.062072
 21
1101.010435
  0
LINE
  8
CutLine
  6
CONTINUOUS
 62
8
 10
348.062072
 20
1101.010435
 11
354.136435
 21
1097.390752
  0
LINE
  8
CutLine
  6
CONTINUOUS
 62
8
 10
370.095336
 20
1104.583159
 11
372.839885
 21
1098.066454
  0
LINE
  8
CutLine
  6
CONTINUOUS
 62
8
 10
372.839885
 20
1098.066454
 11
368.984653
 21
1088.601235
  0
LINE
  8
CutLine
  6
CONTINUOUS
 62
8
 10
368.984653
 20
1088.601235
 11
362.467947
 21
1085.856686
  0
LINE
  8
CutLine
  6
CONTINUOUS
 62
8
 10
354.136435
 20
1097.390752
 11
356.640464
 21
1104.003606
  0
LINE
  8
CutLine
  6
CONTINUOUS
 62
8
 10
356.640464
 20
1104.003606
 11
363.482482
 21
1107.087188
  0
LINE
  8
CutLine
  6
CONTINUOUS
 62
8
 10
363.482482
 20
1107.087188
 11
370.095336
 21
1104.583159
  0
LINE
  8
CutLine
  6
CONTINUOUS
 62
8
 10
72.410535
 20
1029.444637
 11
77.456805
 21
1034.397935
  0
LINE
  8
CutLine
  6
CONTINUOUS
 62
8
 10
77.456805
 20
1034.397935
 11
91.772128
 21
1034.264838
  0
LINE
  8
CutLine
  6
CONTINUOUS
 62
8
 10
91.772128
 20
1034.264838
 11
96.725426
 21
1029.218568
  0
LINE
  8
CutLine
  6
CONTINUOUS
 62
8
 10
261.120166
 20
1207.016430
 11
261.394238
 21
1199.950676
  0
LINE
  8
CutLine
  6
CONTINUOUS
 62
8
 10
261.394238
 20
1199.950676
 11
242.539690
 21
1179.574409
  0
LINE
  8
CutLine
  6
CONTINUOUS
 62
8
 10
242.539690
 20
1179.574409
 11
233.803405
 21
1177.494981
  0
LINE
  8
CutLine
  6
CONTINUOUS
 62
8
 10
220.114817
 20
997.247763
 11
217.032496
 21
1003.611669
  0
LINE
  8
CutLine
  6
CONTINUOUS
 62
8
 10
217.032496
 20
1003.611669
 11
229.873538
 21
1040.575335
  0
LINE
  8
CutLine
  6
CONTINUOUS
 62
8
 10
229.873538
 20
1040.575335
 11
236.314460
 21
1043.879349
  0
LINE
  8
CutLine
  6
CONTINUOUS
 62
8
 10
216.084154
 20
914.701393
 11
214.480831
 21
916.125543
  0
LINE
  8
CutLine
  6
CONTINUOUS
 62
8
 10
209.730835
 20
937.420441
 11
209.471173
 21
941.807909
  0
LINE
  8
CutLine
  6
CONTINUOUS
 62
8
 10
209.471173
 20
941.807909
 11
214.167044
 21
947.094572
  0
LINE
  8
CutLine
  6
CONTINUOUS
 62
8
 10
214.167044
 20
947.094572
 11
209.790672
 21
952.648612
  0
LINE
  8
CutLine
  6
CONTINUOUS
 62
8
 10
209.790672
 20
952.648612
 11
214.540953
 21
992.704235
  0
LINE
  8
CutLine
  6
CONTINUOUS
 62
8
 10
214.540953
 20
992.704235
 11
220.114817
 21
997.247763
  0
LINE
  8
CutLine
  6
CONTINUOUS
 62
8
 10
215.399626
 20
913.105395
 11
216.084154
 21
914.701393
  0
LINE
  8
CutLine
  6
CONTINUOUS
 62
8
 10
289.265503
 20
806.358906
 11
285.506705
 21
806.486705
  0
LINE
  8
CutLine
  6
CONTINUOUS
 62
8
 10
287.249777
 20
804.494118
 11
289.222568
 21
801.070496
  0
LINE
  8
CutLine
  6
CONTINUOUS
 62
8
 10
289.155683
 20
792.832181
 11
283.190296
 21
789.394752
  0
LINE
  8
CutLine
  6
CONTINUOUS
 62
8
 10
283.190296
 20
789.394752
 11
282.066943
 21
782.413486
  0
LINE
  8
CutLine
  6
CONTINUOUS
 62
8
 10
282.066943
 20
782.413486
 11
244.863982
 21
755.523674
  0
LINE
  8
CutLine
  6
CONTINUOUS
 62
8
 10
244.863982
 20
755.523674
 11
236.372181
 21
755.555232
  0
LINE
  8
CutLine
  6
CONTINUOUS
 62
8
 10
137.519602
 20
1054.351852
 11
144.317075
 21
1059.441648
  0
LINE
  8
CutLine
  6
CONTINUOUS
 62
8
 10
144.317075
 20
1059.441648
 11
190.216507
 21
1060.045071
  0
LINE
  8
CutLine
  6
CONTINUOUS
 62
8
 10
190.216507
 20
1060.045071
 11
195.281802
 21
1055.111231
  0
LINE
  8
CutLine
  6
CONTINUOUS
 62
8
 10
195.281802
 20
1055.111231
 11
202.305149
 21
1055.931354
  0
LINE
  8
CutLine
  6
CONTINUOUS
 62
8
 10
202.305149
 20
1055.931354
 11
206.725371
 21
1052.435499
  0
LINE
  8
CutLine
  6
CONTINUOUS
 62
8
 10
206.725371
 20
1052.435499
 11
207.545494
 21
1045.412152
  0
LINE
  8
CutLine
  6
CONTINUOUS
 62
8
 10
482.992959
 20
1160.306685
 11
475.949646
 21
1160.932577
  0
LINE
  8
CutLine
  6
CONTINUOUS
 62
8
 10
475.949646
 20
1160.932577
 11
468.699936
 21
1169.596416
  0
LINE
  8
CutLine
  6
CONTINUOUS
 62
8
 10
468.699936
 20
1169.596416
 11
469.325828
 21
1176.639729
  0
LINE
  8
CutLine
  6
CONTINUOUS
 62
8
 10
265.191981
 20
1211.651351
 11
268.140802
 21
1218.078206
  0
LINE
  8
CutLine
  6
CONTINUOUS
 62
8
 10
268.140802
 20
1218.078206
 11
299.413341
 21
1229.679175
  0
LINE
  8
CutLine
  6
CONTINUOUS
 62
8
 10
299.413341
 20
1229.679175
 11
305.840195
 21
1226.730354
  0
LINE
  8
CutLine
  6
CONTINUOUS
 62
8
 10
268.643201
 20
1191.924119
 11
262.856356
 21
1195.987668
  0
LINE
  8
CutLine
  6
CONTINUOUS
 62
8
 10
262.856356
 20
1195.987668
 11
261.175222
 21
1205.597061
  0
LINE
  8
CutLine
  6
CONTINUOUS
 62
8
 10
261.162942
 20
1205.913650
 11
265.191981
 21
1211.651351
  0
LINE
  8
CutLine
  6
CONTINUOUS
 62
8
 10
329.232586
 20
1165.629987
 11
336.234498
 21
1164.643464
  0
LINE
  8
CutLine
  6
CONTINUOUS
 62
8
 10
336.234498
 20
1164.643464
 11
369.904964
 21
1119.929089
  0
LINE
  8
CutLine
  6
CONTINUOUS
 62
8
 10
369.904964
 20
1119.929089
 11
369.819503
 21
1111.730566
  0
LINE
  8
CutLine
  6
CONTINUOUS
 62
8
 10
301.320516
 20
1086.649013
 11
298.084189
 21
1084.709064
  0
LINE
  8
CutLine
  6
CONTINUOUS
 62
8
 10
615.289200
 20
1305.441239
 11
619.248802
 21
1299.582779
  0
LINE
  8
CutLine
  6
CONTINUOUS
 62
8
 10
619.248802
 20
1299.582779
 11
616.977420
 21
1287.838580
  0
LINE
  8
CutLine
  6
CONTINUOUS
 62
8
 10
616.977420
 20
1287.838580
 11
611.118960
 21
1283.878978
  0
LINE
  8
CutLine
  6
CONTINUOUS
 62
8
 10
576.741160
 20
1345.554743
 11
583.810828
 21
1345.414048
  0
LINE
  8
CutLine
  6
CONTINUOUS
 62
8
 10
583.810828
 20
1345.414048
 11
615.429895
 21
1312.510907
  0
LINE
  8
CutLine
  6
CONTINUOUS
 62
8
 10
615.429895
 20
1312.510907
 11
615.289200
 21
1305.441239
  0
LINE
  8
CutLine
  6
CONTINUOUS
 62
8
 10
528.802599
 20
1362.309839
 11
529.562613
 21
1358.030025
  0
LINE
  8
CutLine
  6
CONTINUOUS
 62
8
 10
559.432670
 20
1232.403526
 11
551.966547
 21
1235.791754
  0
LINE
  8
CutLine
  6
CONTINUOUS
 62
8
 10
551.966547
 20
1235.791754
 11
525.676848
 21
1285.207615
  0
LINE
  8
CutLine
  6
CONTINUOUS
 62
8
 10
525.676848
 20
1285.207615
 11
527.742648
 21
1291.970193
  0
LINE
  8
CutLine
  6
CONTINUOUS
 62
8
 10
448.008670
 20
1202.815963
 11
460.775750
 21
1176.394742
  0
LINE
  8
CutLine
  6
CONTINUOUS
 62
8
 10
460.775750
 20
1176.394742
 11
458.449198
 21
1169.717381
  0
LINE
  8
CutLine
  6
CONTINUOUS
 62
8
 10
479.299342
 20
1342.390859
 11
479.335954
 21
1336.712146
  0
LINE
  8
CutLine
  6
CONTINUOUS
 62
8
 10
386.538746
 20
1302.286883
 11
387.717732
 21
1309.258970
  0
LINE
  8
CutLine
  6
CONTINUOUS
 62
8
 10
387.717732
 20
1309.258970
 11
417.971855
 21
1330.761072
  0
LINE
  8
CutLine
  6
CONTINUOUS
 62
8
 10
417.971855
 20
1330.761072
 11
424.943942
 21
1329.582086
  0
LINE
  8
CutLine
  6
CONTINUOUS
 62
8
 10
379.676060
 20
1297.919179
 11
386.726382
 21
1297.377927
  0
LINE
  8
CutLine
  6
CONTINUOUS
 62
8
 10
386.726382
 20
1297.377927
 11
391.029227
 21
1292.359490
  0
LINE
  8
CutLine
  6
CONTINUOUS
 62
8
 10
309.196257
 20
1228.428042
 11
304.067243
 21
1230.865736
  0
LINE
  8
CutLine
  6
CONTINUOUS
 62
8
 10
143.127771
 20
775.524757
 11
144.157074
 21
782.520509
  0
LINE
  8
CutLine
  6
CONTINUOUS
 62
8
 10
144.157074
 20
782.520509
 11
185.203876
 21
813.037893
  0
LINE
  8
CutLine
  6
CONTINUOUS
 62
8
 10
185.203876
 20
813.037893
 11
193.431841
 21
812.924714
  0
LINE
  8
CutLine
  6
CONTINUOUS
 62
8
 10
188.637699
 20
751.400068
 11
187.671293
 21
744.395351
  0
LINE
  8
CutLine
  6
CONTINUOUS
 62
8
 10
187.671293
 20
744.395351
 11
176.259884
 21
735.750941
  0
LINE
  8
CutLine
  6
CONTINUOUS
 62
8
 10
176.259884
 20
735.750941
 11
169.255167
 21
736.717347
  0
LINE
  8
CutLine
  6
CONTINUOUS
 62
8
 10
130.859817
 20
926.438606
 11
125.556011
 21
921.762107
  0
LINE
  8
CutLine
  6
CONTINUOUS
 62
8
 10
125.556011
 20
921.762107
 11
80.854432
 21
924.571804
  0
LINE
  8
CutLine
  6
CONTINUOUS
 62
8
 10
140.313295
 20
965.257908
 11
136.393497
 21
930.840695
  0
LINE
  8
CutLine
  6
CONTINUOUS
 62
8
 10
136.393497
 20
930.840695
 11
130.859817
 21
926.438606
  0
LINE
  8
CutLine
  6
CONTINUOUS
 62
8
 10
9.828626
 20
869.768951
 11
8.158132
 21
876.639864
  0
LINE
  8
CutLine
  6
CONTINUOUS
 62
8
 10
8.158132
 20
876.639864
 11
29.914190
 21
912.373011
  0
LINE
  8
CutLine
  6
CONTINUOUS
 62
8
 10
29.914190
 20
912.373011
 11
36.785104
 21
914.043504
  0
LINE
  8
CutLine
  6
CONTINUOUS
 62
8
 10
113.691945
 20
844.618049
 11
107.026466
 21
842.257670
  0
LINE
  8
CutLine
  6
CONTINUOUS
 62
8
 10
107.026466
 20
842.257670
 11
57.398727
 21
865.928815
  0
LINE
  8
CutLine
  6
CONTINUOUS
 62
8
 10
126.439978
 20
870.647404
 11
128.731169
 21
863.957827
  0
LINE
  8
CutLine
  6
CONTINUOUS
 62
8
 10
128.731169
 20
863.957827
 11
120.381522
 21
846.909241
  0
LINE
  8
CutLine
  6
CONTINUOUS
 62
8
 10
120.381522
 20
846.909241
 11
113.691945
 21
844.618049
  0
LINE
  8
CutLine
  6
CONTINUOUS
 62
8
 10
138.672260
 20
896.923077
 11
141.094918
 21
890.279981
  0
LINE
  8
CutLine
  6
CONTINUOUS
 62
8
 10
141.094918
 20
890.279981
 11
133.083074
 21
873.070062
  0
LINE
  8
CutLine
  6
CONTINUOUS
 62
8
 10
133.083074
 20
873.070062
 11
126.439978
 21
870.647404
  0
LINE
  8
CutLine
  6
CONTINUOUS
 62
8
 10
94.198106
 20
923.733094
 11
136.318558
 21
903.590917
  0
LINE
  8
CutLine
  6
CONTINUOUS
 62
8
 10
136.318558
 20
903.590917
 11
138.672260
 21
896.923077
  0
LINE
  8
CutLine
  6
CONTINUOUS
 62
8
 10
57.645586
 20
903.502847
 11
55.612579
 21
917.906969
  0
LINE
  8
CutLine
  6
CONTINUOUS
 62
8
 10
55.612579
 20
917.906969
 11
68.339472
 21
977.425910
  0
LINE
  8
CutLine
  6
CONTINUOUS
 62
8
 10
68.339472
 20
977.425910
 11
74.582828
 21
982.712021
  0
LINE
  8
CutLine
  6
CONTINUOUS
 62
8
 10
10.794632
 20
836.874443
 11
5.650016
 21
841.725518
  0
LINE
  8
CutLine
  6
CONTINUOUS
 62
8
 10
5.650016
 20
841.725518
 11
5.000000
 21
863.859917
  0
LINE
  8
CutLine
  6
CONTINUOUS
 62
8
 10
5.000000
 20
863.859917
 11
9.828626
 21
869.768951
  0
LINE
  8
CutLine
  6
CONTINUOUS
 62
8
 10
90.379734
 20
836.783275
 11
91.172064
 21
829.756739
  0
LINE
  8
CutLine
  6
CONTINUOUS
 62
8
 10
91.172064
 20
829.756739
 11
62.109739
 21
793.307122
  0
LINE
  8
CutLine
  6
CONTINUOUS
 62
8
 10
62.109739
 20
793.307122
 11
55.083202
 21
792.514792
  0
LINE
  8
CutLine
  6
CONTINUOUS
 62
8
 10
73.804068
 20
858.103893
 11
89.944021
 21
843.840906
  0
LINE
  8
CutLine
  6
CONTINUOUS
 62
8
 10
89.944021
 20
843.840906
 11
90.379734
 21
836.783275
  0
LINE
  8
CutLine
  6
CONTINUOUS
 62
8
 10
482.294989
 20
1339.033653
 11
479.314701
 21
1340.008610
  0
LINE
  8
CutLine
  6
CONTINUOUS
 62
8
 10
472.999684
 20
1346.310463
 11
466.390731
 21
1359.345733
  0
LINE
  8
CutLine
  6
CONTINUOUS
 62
8
 10
466.390731
 20
1359.345733
 11
468.589274
 21
1366.066328
  0
LINE
  8
CutLine
  6
CONTINUOUS
 62
8
 10
399.027032
 20
1595.994835
 11
407.206866
 21
1595.881800
  0
LINE
  8
CutLine
  6
CONTINUOUS
 62
8
 10
407.206866
 20
1595.881800
 11
414.829170
 21
1589.825671
  0
LINE
  8
CutLine
  6
CONTINUOUS
 62
8
 10
358.476537
 20
1572.664306
 11
360.316943
 21
1579.491671
  0
LINE
  8
CutLine
  6
CONTINUOUS
 62
8
 10
360.316943
 20
1579.491671
 11
392.199668
 21
1597.835240
  0
LINE
  8
CutLine
  6
CONTINUOUS
 62
8
 10
392.199668
 20
1597.835240
 11
399.027032
 21
1595.994835
  0
LINE
  8
CutLine
  6
CONTINUOUS
 62
8
 10
357.258493
 20
1569.600614
 11
358.476537
 21
1572.664306
  0
LINE
  8
CutLine
  6
CONTINUOUS
 62
8
 10
278.244451
 20
1495.860322
 11
276.839378
 21
1502.790384
  0
LINE
  8
CutLine
  6
CONTINUOUS
 62
8
 10
276.839378
 20
1502.790384
 11
326.653405
 21
1577.941053
  0
LINE
  8
CutLine
  6
CONTINUOUS
 62
8
 10
326.653405
 20
1577.941053
 11
341.007635
 21
1590.546408
  0
LINE
  8
CutLine
  6
CONTINUOUS
 62
8
 10
344.691580
 20
1412.738768
 11
337.729490
 21
1413.975417
  0
LINE
  8
CutLine
  6
CONTINUOUS
 62
8
 10
337.729490
 20
1413.975417
 11
320.199544
 21
1439.078020
  0
LINE
  8
CutLine
  6
CONTINUOUS
 62
8
 10
320.199544
 20
1439.078020
 11
321.436193
 21
1446.040110
  0
LINE
  8
CutLine
  6
CONTINUOUS
 62
8
 10
379.507351
 20
1380.992130
 11
372.443788
 21
1380.666435
  0
LINE
  8
CutLine
  6
CONTINUOUS
 62
8
 10
372.443788
 20
1380.666435
 11
345.017275
 21
1405.675205
  0
LINE
  8
CutLine
  6
CONTINUOUS
 62
8
 10
345.017275
 20
1405.675205
 11
344.691580
 21
1412.738768
  0
LINE
  8
CutLine
  6
CONTINUOUS
 62
8
 10
465.897351
 20
1369.148678
 11
460.812795
 21
1364.234689
  0
LINE
  8
CutLine
  6
CONTINUOUS
 62
8
 10
460.812795
 20
1364.234689
 11
430.199612
 21
1364.756926
  0
LINE
  8
CutLine
  6
CONTINUOUS
 62
8
 10
430.199612
 20
1364.756926
 11
425.285623
 21
1369.841482
  0
LINE
  8
CutLine
  6
CONTINUOUS
 62
8
 10
471.036637
 20
1368.483241
 11
465.897351
 21
1369.148678
  0
LINE
  8
CutLine
  6
CONTINUOUS
 62
8
 10
546.956632
 20
1517.257695
 11
552.296229
 21
1512.622103
  0
LINE
  8
CutLine
  6
CONTINUOUS
 62
8
 10
552.296229
 20
1512.622103
 11
554.885774
 21
1475.930296
  0
LINE
  8
CutLine
  6
CONTINUOUS
 62
8
 10
554.885774
 20
1475.930296
 11
550.250182
 21
1470.590700
  0
LINE
  8
CutLine
  6
CONTINUOUS
 62
8
 10
550.250182
 20
1470.590700
 11
548.388486
 21
1467.868479
  0
LINE
  8
CutLine
  6
CONTINUOUS
 62
8
 10
317.374759
 20
1446.551874
 11
313.027584
 21
1440.974951
  0
LINE
  8
CutLine
  6
CONTINUOUS
 62
8
 10
313.027584
 20
1440.974951
 11
292.873112
 21
1438.477505
  0
LINE
  8
CutLine
  6
CONTINUOUS
 62
8
 10
292.873112
 20
1438.477505
 11
287.296189
 21
1442.824681
  0
LINE
  8
CutLine
  6
CONTINUOUS
 62
8
 10
321.656490
 20
1449.473521
 11
317.374759
 21
1446.551874
  0
LINE
  8
CutLine
  6
CONTINUOUS
 62
8
 10
342.613740
 20
576.916840
 11
337.099037
 21
572.491001
  0
LINE
  8
CutLine
  6
CONTINUOUS
 62
8
 10
337.099037
 20
572.491001
 11
234.116295
 21
583.771505
  0
LINE
  8
CutLine
  6
CONTINUOUS
 62
8
 10
234.116295
 20
583.771505
 11
229.690456
 21
589.286209
  0
LINE
  8
CutLine
  6
CONTINUOUS
 62
8
 10
483.249499
 20
1578.221170
 11
485.627548
 21
1571.561975
  0
LINE
  8
CutLine
  6
CONTINUOUS
 62
8
 10
485.627548
 20
1571.561975
 11
479.902663
 21
1559.477086
  0
LINE
  8
CutLine
  6
CONTINUOUS
 62
8
 10
479.902663
 20
1559.477086
 11
473.243467
 21
1557.099038
  0
LINE
  8
CutLine
  6
CONTINUOUS
 62
8
 10
418.657773
 20
808.127403
 11
414.703657
 21
802.265239
  0
LINE
  8
CutLine
  6
CONTINUOUS
 62
8
 10
414.703657
 20
802.265239
 11
370.094621
 21
793.594315
  0
LINE
  8
CutLine
  6
CONTINUOUS
 62
8
 10
370.094621
 20
793.594315
 11
364.232457
 21
797.548431
  0
LINE
  8
CutLine
  6
CONTINUOUS
 62
8
 10
436.160150
 20
808.417318
 11
431.243646
 21
803.335193
  0
LINE
  8
CutLine
  6
CONTINUOUS
 62
8
 10
431.243646
 20
803.335193
 11
423.739898
 21
803.210899
  0
LINE
  8
CutLine
  6
CONTINUOUS
 62
8
 10
423.739898
 20
803.210899
 11
418.657773
 21
808.127403
  0
LINE
  8
CutLine
  6
CONTINUOUS
 62
8
 10
421.283124
 20
822.111556
 11
428.348140
 21
822.404032
  0
LINE
  8
CutLine
  6
CONTINUOUS
 62
8
 10
428.348140
 20
822.404032
 11
435.867673
 21
815.482334
  0
LINE
  8
CutLine
  6
CONTINUOUS
 62
8
 10
435.867673
 20
815.482334
 11
436.160150
 21
808.417318
  0
LINE
  8
CutLine
  6
CONTINUOUS
 62
8
 10
379.629379
 20
724.082451
 11
383.434016
 21
716.357227
  0
LINE
  8
CutLine
  6
CONTINUOUS
 62
8
 10
383.434016
 20
716.357227
 11
377.672384
 21
681.076651
  0
LINE
  8
CutLine
  6
CONTINUOUS
 62
8
 10
377.672384
 20
681.076651
 11
371.931884
 21
676.947890
  0
LINE
  8
CutLine
  6
CONTINUOUS
 62
8
 10
353.248584
 20
725.956825
 11
358.590372
 21
730.589892
  0
LINE
  8
CutLine
  6
CONTINUOUS
 62
8
 10
358.590372
 20
730.589892
 11
374.996312
 21
729.424238
  0
LINE
  8
CutLine
  6
CONTINUOUS
 62
8
 10
374.996312
 20
729.424238
 11
379.629379
 21
724.082451
  0
LINE
  8
CutLine
  6
CONTINUOUS
 62
8
 10
210.989678
 20
665.422294
 11
208.604324
 21
672.078876
  0
LINE
  8
CutLine
  6
CONTINUOUS
 62
8
 10
208.604324
 20
672.078876
 11
220.764110
 21
697.820413
  0
LINE
  8
CutLine
  6
CONTINUOUS
 62
8
 10
220.764110
 20
697.820413
 11
227.420692
 21
700.205766
  0
LINE
  8
CutLine
  6
CONTINUOUS
 62
8
 10
248.589050
 20
661.578423
 11
243.106465
 21
657.112860
  0
LINE
  8
CutLine
  6
CONTINUOUS
 62
8
 10
243.106465
 20
657.112860
 11
215.455241
 21
659.939708
  0
LINE
  8
CutLine
  6
CONTINUOUS
 62
8
 10
215.455241
 20
659.939708
 11
210.989678
 21
665.422294
  0
LINE
  8
CutLine
  6
CONTINUOUS
 62
8
 10
249.462607
 20
662.187333
 11
248.589050
 21
661.578423
  0
LINE
  8
CutLine
  6
CONTINUOUS
 62
8
 10
237.629607
 20
741.355985
 11
242.894055
 21
746.076746
  0
LINE
  8
CutLine
  6
CONTINUOUS
 62
8
 10
242.894055
 20
746.076746
 11
256.659924
 21
745.327205
  0
LINE
  8
CutLine
  6
CONTINUOUS
 62
8
 10
256.659924
 20
745.327205
 11
261.380685
 21
740.062757
  0
LINE
  8
CutLine
  6
CONTINUOUS
 62
8
 10
227.420692
 20
700.205766
 11
223.771753
 21
706.262601
  0
LINE
  8
CutLine
  6
CONTINUOUS
 62
8
 10
223.771753
 20
706.262601
 11
231.572772
 21
737.707046
  0
LINE
  8
CutLine
  6
CONTINUOUS
 62
8
 10
231.572772
 20
737.707046
 11
237.629607
 21
741.355985
  0
LINE
  8
CutLine
  6
CONTINUOUS
 62
8
 10
430.776016
 20
615.906741
 11
425.729994
 21
610.953191
  0
LINE
  8
CutLine
  6
CONTINUOUS
 62
8
 10
425.729994
 20
610.953191
 11
418.244249
 21
611.022416
  0
LINE
  8
CutLine
  6
CONTINUOUS
 62
8
 10
418.244249
 20
611.022416
 11
401.204588
 21
616.180205
  0
LINE
  8
CutLine
  6
CONTINUOUS
 62
8
 10
444.764231
 20
641.311944
 11
446.732567
 21
634.520356
  0
LINE
  8
CutLine
  6
CONTINUOUS
 62
8
 10
446.732567
 20
634.520356
 11
437.567603
 21
617.875077
  0
LINE
  8
CutLine
  6
CONTINUOUS
 62
8
 10
437.567603
 20
617.875077
 11
430.776016
 21
615.906741
  0
LINE
  8
CutLine
  6
CONTINUOUS
 62
8
 10
404.634093
 20
644.012554
 11
415.429836
 21
648.297350
  0
LINE
  8
CutLine
  6
CONTINUOUS
 62
8
 10
415.429836
 20
648.297350
 11
440.111237
 21
646.636382
  0
LINE
  8
CutLine
  6
CONTINUOUS
 62
8
 10
440.111237
 20
646.636382
 11
444.764231
 21
641.311944
  0
LINE
  8
CutLine
  6
CONTINUOUS
 62
8
 10
377.369426
 20
642.203896
 11
382.027503
 21
647.523888
  0
LINE
  8
CutLine
  6
CONTINUOUS
 62
8
 10
382.027503
 20
647.523888
 11
399.314101
 21
648.670631
  0
LINE
  8
CutLine
  6
CONTINUOUS
 62
8
 10
399.314101
 20
648.670631
 11
404.634093
 21
644.012554
  0
LINE
  8
CutLine
  6
CONTINUOUS
 62
8
 10
401.204588
 20
616.180205
 11
397.032782
 21
610.470911
  0
LINE
  8
CutLine
  6
CONTINUOUS
 62
8
 10
397.032782
 20
610.470911
 11
379.430585
 21
607.732028
  0
LINE
  8
CutLine
  6
CONTINUOUS
 62
8
 10
379.430585
 20
607.732028
 11
373.721291
 21
611.903834
  0
LINE
  8
CutLine
  6
CONTINUOUS
 62
8
 10
1445.619619
 20
331.132295
 11
1439.133452
 21
329.689843
  0
LINE
  8
CutLine
  6
CONTINUOUS
 62
8
 10
1439.133452
 20
329.689843
 11
1438.562976
 21
336.309933
  0
LINE
  8
CutLine
  6
CONTINUOUS
 62
8
 10
1432.232176
 20
389.891891
 11
1438.217956
 21
386.127527
  0
LINE
  8
CutLine
  6
CONTINUOUS
 62
8
 10
1438.217956
 20
386.127527
 11
1447.013935
 21
347.520589
  0
LINE
  8
CutLine
  6
CONTINUOUS
 62
8
 10
1447.013935
 20
347.520589
 11
1445.619619
 21
331.132295
  0
LINE
  8
CutLine
  6
CONTINUOUS
 62
8
 10
1433.379209
 20
440.646289
 11
1438.264963
 21
435.534596
  0
LINE
  8
CutLine
  6
CONTINUOUS
 62
8
 10
1438.264963
 20
435.534596
 11
1437.343869
 21
394.777646
  0
LINE
  8
CutLine
  6
CONTINUOUS
 62
8
 10
1437.343869
 20
394.777646
 11
1432.232176
 21
389.891891
  0
LINE
  8
CutLine
  6
CONTINUOUS
 62
8
 10
1417.783543
 20
388.565045
 11
1416.468039
 21
401.601858
  0
LINE
  8
CutLine
  6
CONTINUOUS
 62
8
 10
1416.468039
 20
401.601858
 11
1427.155034
 21
437.290749
  0
LINE
  8
CutLine
  6
CONTINUOUS
 62
8
 10
1427.155034
 20
437.290749
 11
1433.379209
 21
440.646289
  0
LINE
  8
CutLine
  6
CONTINUOUS
 62
8
 10
1252.110473
 20
393.552717
 11
1257.678039
 21
397.911869
  0
LINE
  8
CutLine
  6
CONTINUOUS
 62
8
 10
1257.678039
 20
397.911869
 11
1277.659072
 21
395.479507
  0
LINE
  8
CutLine
  6
CONTINUOUS
 62
8
 10
1277.659072
 20
395.479507
 11
1282.018224
 21
389.911941
  0
LINE
  8
CutLine
  6
CONTINUOUS
 62
8
 10
1282.018224
 20
326.772725
 11
1276.456769
 21
322.405778
  0
LINE
  8
CutLine
  6
CONTINUOUS
 62
8
 10
1276.456769
 20
322.405778
 11
1255.802155
 21
324.890781
  0
LINE
  8
CutLine
  6
CONTINUOUS
 62
8
 10
1255.802155
 20
324.890781
 11
1251.435209
 21
330.452235
  0
LINE
  8
CutLine
  6
CONTINUOUS
 62
8
 10
1222.889602
 20
437.988372
 11
1229.692504
 21
439.917236
  0
LINE
  8
CutLine
  6
CONTINUOUS
 62
8
 10
1229.692504
 20
439.917236
 11
1246.910741
 21
430.306083
  0
LINE
  8
CutLine
  6
CONTINUOUS
 62
8
 10
1246.910741
 20
430.306083
 11
1248.839605
 21
423.503180
  0
LINE
  8
CutLine
  6
CONTINUOUS
 62
8
 10
1203.112188
 20
483.363956
 11
1209.693514
 21
480.778198
  0
LINE
  8
CutLine
  6
CONTINUOUS
 62
8
 10
1209.693514
 20
480.778198
 11
1225.475360
 21
444.569698
  0
LINE
  8
CutLine
  6
CONTINUOUS
 62
8
 10
1225.475360
 20
444.569698
 11
1222.889602
 21
437.988372
  0
LINE
  8
CutLine
  6
CONTINUOUS
 62
8
 10
1172.288815
 20
417.156827
 11
1168.227932
 21
422.945542
  0
LINE
  8
CutLine
  6
CONTINUOUS
 62
8
 10
1168.227932
 20
422.945542
 11
1168.689323
 21
425.575725
  0
LINE
  8
CutLine
  6
CONTINUOUS
 62
8
 10
1168.689323
 20
425.575725
 11
1174.478039
 21
429.636608
  0
LINE
  8
CutLine
  6
CONTINUOUS
 62
8
 10
1174.478039
 20
429.636608
 11
1169.824469
 21
434.960544
  0
LINE
  8
CutLine
  6
CONTINUOUS
 62
8
 10
1169.824469
 20
434.960544
 11
1171.758932
 21
463.752458
  0
LINE
  8
CutLine
  6
CONTINUOUS
 62
8
 10
1171.758932
 20
463.752458
 11
1177.082868
 21
468.406028
  0
LINE
  8
CutLine
  6
CONTINUOUS
 62
8
 10
1177.082868
 20
468.406028
 11
1171.882048
 21
473.991458
  0
LINE
  8
CutLine
  6
CONTINUOUS
 62
8
 10
1171.882048
 20
473.991458
 11
1169.922651
 21
529.351636
  0
LINE
  8
CutLine
  6
CONTINUOUS
 62
8
 10
1169.922651
 20
529.351636
 11
1174.742665
 21
534.525365
  0
LINE
  8
CutLine
  6
CONTINUOUS
 62
8
 10
1174.742665
 20
534.525365
 11
1181.865185
 21
531.991123
  0
LINE
  8
CutLine
  6
CONTINUOUS
 62
8
 10
1181.865185
 20
531.991123
 11
1205.060193
 21
490.161402
  0
LINE
  8
CutLine
  6
CONTINUOUS
 62
8
 10
1205.060193
 20
490.161402
 11
1203.112188
 21
483.363956
  0
LINE
  8
CutLine
  6
CONTINUOUS
 62
8
 10
1230.112350
 20
281.995368
 11
1233.876197
 21
276.009262
  0
LINE
  8
CutLine
  6
CONTINUOUS
 62
8
 10
1233.876197
 20
276.009262
 11
1225.098632
 21
237.498529
  0
LINE
  8
CutLine
  6
CONTINUOUS
 62
8
 10
1225.098632
 20
237.498529
 11
1219.112526
 21
233.734683
  0
LINE
  8
CutLine
  6
CONTINUOUS
 62
8
 10
1219.112526
 20
233.734683
 11
1221.396232
 21
225.892354
  0
LINE
  8
CutLine
  6
CONTINUOUS
 62
8
 10
1221.396232
 20
225.892354
 11
1203.650092
 21
180.861121
  0
LINE
  8
CutLine
  6
CONTINUOUS
 62
8
 10
1203.650092
 20
180.861121
 11
1197.165071
 21
178.042520
  0
LINE
  8
CutLine
  6
CONTINUOUS
 62
8
 10
1178.489507
 20
242.878225
 11
1173.819599
 21
248.187836
  0
LINE
  8
CutLine
  6
CONTINUOUS
 62
8
 10
1173.819599
 20
248.187836
 11
1175.676345
 21
277.153523
  0
LINE
  8
CutLine
  6
CONTINUOUS
 62
8
 10
1175.676345
 20
277.153523
 11
1180.985956
 21
281.823430
  0
LINE
  8
CutLine
  6
CONTINUOUS
 62
8
 10
1252.697372
 20
299.674540
 11
1251.842147
 21
292.655381
  0
LINE
  8
CutLine
  6
CONTINUOUS
 62
8
 10
1251.842147
 20
292.655381
 11
1237.131509
 21
281.140143
  0
LINE
  8
CutLine
  6
CONTINUOUS
 62
8
 10
1237.131509
 20
281.140143
 11
1230.112350
 21
281.995368
  0
LINE
  8
CutLine
  6
CONTINUOUS
 62
8
 10
1173.296910
 20
325.942499
 11
1168.860515
 21
320.436285
  0
LINE
  8
CutLine
  6
CONTINUOUS
 62
8
 10
1168.860515
 20
320.436285
 11
1146.619066
 21
318.043118
  0
LINE
  8
CutLine
  6
CONTINUOUS
 62
8
 10
1146.619066
 20
318.043118
 11
1141.112851
 21
322.479513
  0
LINE
  8
CutLine
  6
CONTINUOUS
 62
8
 10
1143.259660
 20
382.101291
 11
1147.687722
 21
387.614209
  0
LINE
  8
CutLine
  6
CONTINUOUS
 62
8
 10
1147.687722
 20
387.614209
 11
1169.273111
 21
389.969818
  0
LINE
  8
CutLine
  6
CONTINUOUS
 62
8
 10
1169.273111
 20
389.969818
 11
1174.786030
 21
385.541756
  0
LINE
  8
CutLine
  6
CONTINUOUS
 62
8
 10
1141.112851
 20
322.479513
 11
1135.590340
 21
318.063420
  0
LINE
  8
CutLine
  6
CONTINUOUS
 62
8
 10
1135.590340
 20
318.063420
 11
1132.622082
 21
318.393863
  0
LINE
  8
CutLine
  6
CONTINUOUS
 62
8
 10
1132.622082
 20
318.393863
 11
1128.205990
 21
323.916374
  0
LINE
  8
CutLine
  6
CONTINUOUS
 62
8
 10
1089.812499
 20
330.909309
 11
1085.000000
 21
336.090028
  0
LINE
  8
CutLine
  6
CONTINUOUS
 62
8
 10
1085.000000
 20
336.090028
 11
1086.600527
 21
379.527164
  0
LINE
  8
CutLine
  6
CONTINUOUS
 62
8
 10
1086.600527
 20
379.527164
 11
1091.781246
 21
384.339663
  0
LINE
  8
CutLine
  6
CONTINUOUS
 62
8
 10
635.386833
 20
1522.280840
 11
640.316420
 21
1527.350275
  0
LINE
  8
CutLine
  6
CONTINUOUS
 62
8
 10
640.316420
 20
1527.350275
 11
640.826414
 21
1527.357408
  0
LINE
  8
CutLine
  6
CONTINUOUS
 62
8
 10
640.826414
 20
1527.357408
 11
645.895849
 21
1522.427821
  0
LINE
  8
CutLine
  6
CONTINUOUS
 62
8
 10
634.133629
 20
1467.269933
 11
629.248802
 21
1472.382511
  0
LINE
  8
CutLine
  6
CONTINUOUS
 62
8
 10
629.248802
 20
1472.382511
 11
630.274254
 21
1517.396013
  0
LINE
  8
CutLine
  6
CONTINUOUS
 62
8
 10
630.274254
 20
1517.396013
 11
635.386833
 21
1522.280840
  0
LINE
  8
CutLine
  6
CONTINUOUS
 62
8
 10
645.895849
 20
1522.427821
 11
651.710042
 21
1526.452142
  0
LINE
  8
CutLine
  6
CONTINUOUS
 62
8
 10
651.710042
 20
1526.452142
 11
656.086969
 21
1525.655869
  0
LINE
  8
CutLine
  6
CONTINUOUS
 62
8
 10
656.086969
 20
1525.655869
 11
660.111290
 21
1519.841676
  0
LINE
  8
CutLine
  6
CONTINUOUS
 62
8
 10
669.865124
 20
1515.190378
 11
674.781496
 21
1510.108126
  0
LINE
  8
CutLine
  6
CONTINUOUS
 62
8
 10
674.781496
 20
1510.108126
 11
674.252397
 21
1478.215868
  0
LINE
  8
CutLine
  6
CONTINUOUS
 62
8
 10
674.252397
 20
1478.215868
 11
669.086775
 21
1468.274209
  0
LINE
  8
CutLine
  6
CONTINUOUS
 62
8
 10
660.111290
 20
1519.841676
 11
666.776566
 21
1522.202627
  0
LINE
  8
CutLine
  6
CONTINUOUS
 62
8
 10
666.776566
 20
1522.202627
 11
667.504173
 21
1521.855654
  0
LINE
  8
CutLine
  6
CONTINUOUS
 62
8
 10
667.504173
 20
1521.855654
 11
669.865124
 21
1515.190378
  0
LINE
  8
CutLine
  6
CONTINUOUS
 62
8
 10
669.086775
 20
1468.274209
 11
665.909548
 21
1462.189456
  0
LINE
  8
CutLine
  6
CONTINUOUS
 62
8
 10
665.909548
 20
1462.189456
 11
660.030447
 21
1465.732782
  0
LINE
  8
CutLine
  6
CONTINUOUS
 62
8
 10
426.238646
 20
263.668287
 11
426.241511
 21
263.665442
  0
LINE
  8
CutLine
  6
CONTINUOUS
 62
8
 10
435.751878
 20
236.773656
 11
435.764731
 21
236.760914
  0
LINE
  8
CutLine
  6
CONTINUOUS
 62
8
 10
435.764731
 20
236.760914
 11
441.317676
 21
232.383152
  0
LINE
  8
CutLine
  6
CONTINUOUS
 62
8
 10
441.317676
 20
232.383152
 11
443.295796
 21
215.667352
  0
LINE
  8
CutLine
  6
CONTINUOUS
 62
8
 10
443.295796
 20
215.667352
 11
438.918034
 21
210.114407
  0
LINE
  8
CutLine
  6
CONTINUOUS
 62
8
 10
360.195995
 20
209.881339
 11
355.785245
 21
215.408118
  0
LINE
  8
CutLine
  6
CONTINUOUS
 62
8
 10
355.785245
 20
215.408118
 11
357.663619
 21
232.133845
  0
LINE
  8
CutLine
  6
CONTINUOUS
 62
8
 10
357.663619
 20
232.133845
 11
363.190398
 21
236.544595
  0
LINE
  8
CutLine
  6
CONTINUOUS
 62
8
 10
362.621180
 20
148.179986
 11
357.428668
 21
152.979759
  0
LINE
  8
CutLine
  6
CONTINUOUS
 62
8
 10
357.428668
 20
152.979759
 11
355.396220
 21
204.690403
  0
LINE
  8
CutLine
  6
CONTINUOUS
 62
8
 10
355.396220
 20
204.690403
 11
360.195320
 21
209.882186
  0
LINE
  8
CutLine
  6
CONTINUOUS
 62
8
 10
438.918034
 20
210.114407
 11
443.748247
 21
204.950199
  0
LINE
  8
CutLine
  6
CONTINUOUS
 62
8
 10
443.748247
 20
204.950199
 11
442.019965
 21
153.233178
  0
LINE
  8
CutLine
  6
CONTINUOUS
 62
8
 10
442.019965
 20
153.233178
 11
436.855757
 21
148.402965
  0
LINE
  8
CutLine
  6
CONTINUOUS
 62
8
 10
435.208700
 20
99.384140
 11
440.049811
 21
94.230147
  0
LINE
  8
CutLine
  6
CONTINUOUS
 62
8
 10
440.049811
 20
94.230147
 11
438.812647
 21
54.708390
  0
LINE
  8
CutLine
  6
CONTINUOUS
 62
8
 10
438.812647
 20
54.708390
 11
433.658655
 21
49.867278
  0
LINE
  8
CutLine
  6
CONTINUOUS
 62
8
 10
366.414859
 20
49.667568
 11
361.232016
 21
54.477780
  0
LINE
  8
CutLine
  6
CONTINUOUS
 62
8
 10
361.232016
 20
54.477780
 11
359.758638
 21
93.990156
  0
LINE
  8
CutLine
  6
CONTINUOUS
 62
8
 10
359.758638
 20
93.990156
 11
364.568850
 21
99.172999
  0
LINE
  8
CutLine
  6
CONTINUOUS
 62
8
 10
436.855757
 20
148.402965
 11
441.685018
 21
143.237867
  0
LINE
  8
CutLine
  6
CONTINUOUS
 62
8
 10
441.685018
 20
143.237867
 11
440.373786
 21
104.216149
  0
LINE
  8
CutLine
  6
CONTINUOUS
 62
8
 10
440.373786
 20
104.216149
 11
435.208688
 21
99.386888
  0
LINE
  8
CutLine
  6
CONTINUOUS
 62
8
 10
364.568850
 20
99.172999
 11
359.374219
 21
103.970479
  0
LINE
  8
CutLine
  6
CONTINUOUS
 62
8
 10
359.374219
 20
103.970479
 11
357.823707
 21
142.980674
  0
LINE
  8
CutLine
  6
CONTINUOUS
 62
8
 10
357.823707
 20
142.980674
 11
362.621188
 21
148.175304
  0
LINE
  8
CutLine
  6
CONTINUOUS
 62
8
 10
433.539346
 20
4.958076
 11
428.339572
 21
0.166172
  0
LINE
  8
CutLine
  6
CONTINUOUS
 62
8
 10
428.339572
 20
0.166172
 11
404.956864
 21
1.120676
  0
LINE
  8
CutLine
  6
CONTINUOUS
 62
8
 10
404.956864
 20
1.120676
 11
400.164960
 21
6.320450
  0
LINE
  8
CutLine
  6
CONTINUOUS
 62
8
 10
433.658660
 20
49.865998
 11
438.645358
 21
44.852731
  0
LINE
  8
CutLine
  6
CONTINUOUS
 62
8
 10
438.645358
 20
44.852731
 11
438.552612
 21
9.944775
  0
LINE
  8
CutLine
  6
CONTINUOUS
 62
8
 10
438.552612
 20
9.944775
 11
433.539346
 21
4.958076
  0
LINE
  8
CutLine
  6
CONTINUOUS
 62
8
 10
366.799195
 20
4.761133
 11
361.756587
 21
9.718159
  0
LINE
  8
CutLine
  6
CONTINUOUS
 62
8
 10
361.756587
 20
9.718159
 11
361.457834
 21
44.624960
  0
LINE
  8
CutLine
  6
CONTINUOUS
 62
8
 10
361.457834
 20
44.624960
 11
366.414859
 21
49.667568
  0
LINE
  8
CutLine
  6
CONTINUOUS
 62
8
 10
400.164960
 20
6.320450
 11
395.403826
 21
1.092486
  0
LINE
  8
CutLine
  6
CONTINUOUS
 62
8
 10
395.403826
 20
1.092486
 11
372.027159
 21
0.000000
  0
LINE
  8
CutLine
  6
CONTINUOUS
 62
8
 10
372.027159
 20
0.000000
 11
366.799195
 21
4.761133
  0
LINE
  8
CutLine
  6
CONTINUOUS
 62
8
 10
119.061624
 20
528.750216
 11
123.945447
 21
533.863755
  0
LINE
  8
CutLine
  6
CONTINUOUS
 62
8
 10
123.945447
 20
533.863755
 11
152.739193
 21
534.525365
  0
LINE
  8
CutLine
  6
CONTINUOUS
 62
8
 10
152.739193
 20
534.525365
 11
157.852731
 21
529.641542
  0
LINE
  8
CutLine
  6
CONTINUOUS
 62
8
 10
100.712716
 20
506.860725
 11
100.092926
 21
513.904578
  0
LINE
  8
CutLine
  6
CONTINUOUS
 62
8
 10
100.092926
 20
513.904578
 11
112.017771
 21
528.130427
  0
LINE
  8
CutLine
  6
CONTINUOUS
 62
8
 10
112.017771
 20
528.130427
 11
119.061624
 21
528.750216
  0
LINE
  8
CutLine
  6
CONTINUOUS
 62
8
 10
369.591295
 20
254.953961
 11
356.883733
 21
245.244137
  0
LINE
  8
CutLine
  6
CONTINUOUS
 62
8
 10
356.883733
 20
245.244137
 11
349.875052
 21
246.181364
  0
LINE
  8
CutLine
  6
CONTINUOUS
 62
8
 10
295.814593
 20
477.223559
 11
302.884197
 21
477.079663
  0
LINE
  8
CutLine
  6
CONTINUOUS
 62
8
 10
302.884197
 20
477.079663
 11
312.662168
 21
466.895377
  0
LINE
  8
CutLine
  6
CONTINUOUS
 62
8
 10
312.662168
 20
466.895377
 11
312.518272
 21
459.825774
  0
LINE
  8
CutLine
  6
CONTINUOUS
 62
8
 10
271.489447
 20
463.618757
 11
273.412642
 21
470.423265
  0
LINE
  8
CutLine
  6
CONTINUOUS
 62
8
 10
273.412642
 20
470.423265
 11
289.010086
 21
479.146753
  0
LINE
  8
CutLine
  6
CONTINUOUS
 62
8
 10
289.010086
 20
479.146753
 11
295.814593
 21
477.223559
  0
LINE
  8
CutLine
  6
CONTINUOUS
 62
8
 10
329.032565
 20
442.248117
 11
330.602708
 21
435.353580
  0
LINE
  8
CutLine
  6
CONTINUOUS
 62
8
 10
330.602708
 20
435.353580
 11
321.087382
 21
420.226187
  0
LINE
  8
CutLine
  6
CONTINUOUS
 62
8
 10
321.087382
 20
420.226187
 11
314.192844
 21
418.656043
  0
LINE
  8
CutLine
  6
CONTINUOUS
 62
8
 10
312.518272
 20
459.825774
 11
319.585903
 21
459.605327
  0
LINE
  8
CutLine
  6
CONTINUOUS
 62
8
 10
319.585903
 20
459.605327
 11
329.253012
 21
449.315748
  0
LINE
  8
CutLine
  6
CONTINUOUS
 62
8
 10
329.253012
 20
449.315748
 11
329.032565
 21
442.248117
  0
LINE
  8
CutLine
  6
CONTINUOUS
 62
8
 10
250.725395
 20
357.252854
 11
250.458506
 21
350.188198
  0
LINE
  8
CutLine
  6
CONTINUOUS
 62
8
 10
250.458506
 20
350.188198
 11
202.109152
 21
305.358951
  0
LINE
  8
CutLine
  6
CONTINUOUS
 62
8
 10
153.176522
 20
356.618831
 11
199.999467
 21
402.897166
  0
LINE
  8
CutLine
  6
CONTINUOUS
 62
8
 10
199.999467
 20
402.897166
 11
207.070414
 21
402.855804
  0
LINE
  8
CutLine
  6
CONTINUOUS
 62
8
 10
271.371503
 20
463.504282
 11
271.602708
 21
463.501444
  0
LINE
  8
CutLine
  6
CONTINUOUS
 62
8
 10
250.569739
 20
446.655648
 11
251.308112
 21
453.688059
  0
LINE
  8
CutLine
  6
CONTINUOUS
 62
8
 10
251.308112
 20
453.688059
 11
264.339092
 21
464.242655
  0
LINE
  8
CutLine
  6
CONTINUOUS
 62
8
 10
264.339092
 20
464.242655
 11
271.371503
 21
463.504282
  0
LINE
  8
CutLine
  6
CONTINUOUS
 62
8
 10
250.569399
 20
446.625398
 11
250.569739
 21
446.655648
  0
LINE
  8
CutLine
  6
CONTINUOUS
 62
8
 10
314.192844
 20
418.656043
 11
314.605427
 21
411.597022
  0
LINE
  8
CutLine
  6
CONTINUOUS
 62
8
 10
314.605427
 20
411.597022
 11
303.459885
 21
399.067744
  0
LINE
  8
CutLine
  6
CONTINUOUS
 62
8
 10
303.459885
 20
399.067744
 11
296.400864
 21
398.655161
  0
LINE
  8
CutLine
  6
CONTINUOUS
 62
8
 10
207.070414
 20
402.855804
 11
207.046037
 21
409.926829
  0
LINE
  8
CutLine
  6
CONTINUOUS
 62
8
 10
207.046037
 20
409.926829
 11
243.483413
 21
446.616302
  0
LINE
  8
CutLine
  6
CONTINUOUS
 62
8
 10
243.483413
 20
446.616302
 11
250.554439
 21
446.640679
  0
LINE
  8
CutLine
  6
CONTINUOUS
 62
8
 10
296.400864
 20
398.655161
 11
296.054284
 21
391.592592
  0
LINE
  8
CutLine
  6
CONTINUOUS
 62
8
 10
296.054284
 20
391.592592
 11
257.742459
 21
356.865025
  0
LINE
  8
CutLine
  6
CONTINUOUS
 62
8
 10
257.742459
 20
356.865025
 11
250.723756
 21
357.209453
  0
LINE
  8
CutLine
  6
CONTINUOUS
 62
8
 10
1306.814765
 20
1515.125306
 11
1303.993581
 21
1521.609203
  0
LINE
  8
CutLine
  6
CONTINUOUS
 62
8
 10
1303.993581
 20
1521.609203
 11
1321.067417
 21
1564.985088
  0
LINE
  8
CutLine
  6
CONTINUOUS
 62
8
 10
1321.067417
 20
1564.985088
 11
1327.551314
 21
1567.806272
  0
LINE
  8
CutLine
  6
CONTINUOUS
 62
8
 10
1266.497035
 20
1475.378992
 11
1266.547500
 21
1482.449879
  0
LINE
  8
CutLine
  6
CONTINUOUS
 62
8
 10
1266.547500
 20
1482.449879
 11
1299.743877
 21
1515.175771
  0
LINE
  8
CutLine
  6
CONTINUOUS
 62
8
 10
1299.743877
 20
1515.175771
 11
1306.814765
 21
1515.125306
  0
LINE
  8
CutLine
  6
CONTINUOUS
 62
8
 10
1364.765556
 20
1484.718213
 11
1358.285425
 21
1481.888390
  0
LINE
  8
CutLine
  6
CONTINUOUS
 62
8
 10
1358.285425
 20
1481.888390
 11
1344.033339
 21
1487.476439
  0
LINE
  8
CutLine
  6
CONTINUOUS
 62
8
 10
1382.004074
 20
1533.466112
 11
1385.051042
 21
1527.085203
  0
LINE
  8
CutLine
  6
CONTINUOUS
 62
8
 10
1385.051042
 20
1527.085203
 11
1371.146465
 21
1487.765181
  0
LINE
  8
CutLine
  6
CONTINUOUS
 62
8
 10
1371.146465
 20
1487.765181
 11
1364.765556
 21
1484.718213
  0
LINE
  8
CutLine
  6
CONTINUOUS
 62
8
 10
929.637652
 20
1254.478808
 11
936.683291
 21
1255.077945
  0
LINE
  8
CutLine
  6
CONTINUOUS
 62
8
 10
936.683291
 20
1255.077945
 11
960.185522
 21
1235.259550
  0
LINE
  8
CutLine
  6
CONTINUOUS
 62
8
 10
960.185522
 20
1235.259550
 11
960.784659
 21
1228.213911
  0
LINE
  8
CutLine
  6
CONTINUOUS
 62
8
 10
1384.875873
 20
1133.249492
 11
1382.849639
 21
1126.474954
  0
LINE
  8
CutLine
  6
CONTINUOUS
 62
8
 10
1382.849639
 20
1126.474954
 11
1381.655025
 21
1125.830421
  0
LINE
  8
CutLine
  6
CONTINUOUS
 62
8
 10
1381.655025
 20
1125.830421
 11
1374.880486
 21
1127.856655
  0
LINE
  8
CutLine
  6
CONTINUOUS
 62
8
 10
1392.500047
 20
1146.270109
 11
1394.288304
 21
1139.428900
  0
LINE
  8
CutLine
  6
CONTINUOUS
 62
8
 10
1394.288304
 20
1139.428900
 11
1391.717082
 21
1135.037749
  0
LINE
  8
CutLine
  6
CONTINUOUS
 62
8
 10
1391.717082
 20
1135.037749
 11
1384.875873
 21
1133.249492
  0
LINE
  8
CutLine
  6
CONTINUOUS
 62
8
 10
1361.149776
 20
1192.414960
 11
1369.789526
 21
1191.212386
  0
LINE
  8
CutLine
  6
CONTINUOUS
 62
8
 10
1369.789526
 20
1191.212386
 11
1409.234226
 21
1154.561416
  0
LINE
  8
CutLine
  6
CONTINUOUS
 62
8
 10
1409.234226
 20
1154.561416
 11
1409.493654
 21
1147.495109
  0
LINE
  8
CutLine
  6
CONTINUOUS
 62
8
 10
1554.049550
 20
1179.861305
 11
1547.257855
 21
1177.893339
  0
LINE
  8
CutLine
  6
CONTINUOUS
 62
8
 10
1547.257855
 20
1177.893339
 11
1542.800454
 21
1180.347919
  0
LINE
  8
CutLine
  6
CONTINUOUS
 62
8
 10
1542.800454
 20
1180.347919
 11
1540.832488
 21
1187.139613
  0
LINE
  8
CutLine
  6
CONTINUOUS
 62
8
 10
1560.264663
 20
1175.123729
 11
1559.259572
 21
1175.080545
  0
LINE
  8
CutLine
  6
CONTINUOUS
 62
8
 10
1559.259572
 20
1175.080545
 11
1554.049550
 21
1179.861305
  0
LINE
  8
CutLine
  6
CONTINUOUS
 62
8
 10
1525.609556
 20
1179.488101
 11
1522.213214
 21
1185.690106
  0
LINE
  8
CutLine
  6
CONTINUOUS
 62
8
 10
1522.213214
 20
1185.690106
 11
1537.320031
 21
1237.371460
  0
LINE
  8
CutLine
  6
CONTINUOUS
 62
8
 10
1537.320031
 20
1237.371460
 11
1544.124644
 21
1242.829362
  0
LINE
  8
CutLine
  6
CONTINUOUS
 62
8
 10
802.584298
 20
1450.982305
 11
797.378244
 21
1455.767386
  0
LINE
  8
CutLine
  6
CONTINUOUS
 62
8
 10
797.378244
 20
1455.767386
 11
795.563287
 21
1498.842562
  0
LINE
  8
CutLine
  6
CONTINUOUS
 62
8
 10
795.563287
 20
1498.842562
 11
800.348368
 21
1504.048616
  0
LINE
  8
CutLine
  6
CONTINUOUS
 62
8
 10
821.246309
 20
1401.797717
 11
814.797752
 21
1404.698770
  0
LINE
  8
CutLine
  6
CONTINUOUS
 62
8
 10
814.797752
 20
1404.698770
 11
799.683245
 21
1444.533748
  0
LINE
  8
CutLine
  6
CONTINUOUS
 62
8
 10
799.683245
 20
1444.533748
 11
802.584298
 21
1450.982305
  0
LINE
  8
CutLine
  6
CONTINUOUS
 62
8
 10
903.723085
 20
1200.440072
 11
897.158263
 21
1203.067449
  0
LINE
  8
CutLine
  6
CONTINUOUS
 62
8
 10
897.158263
 20
1203.067449
 11
880.382375
 21
1242.231748
  0
LINE
  8
CutLine
  6
CONTINUOUS
 62
8
 10
880.382375
 20
1242.231748
 11
883.009752
 21
1248.796571
  0
LINE
  8
CutLine
  6
CONTINUOUS
 62
8
 10
1450.138077
 20
1424.290086
 11
1445.501584
 21
1429.628900
  0
LINE
  8
CutLine
  6
CONTINUOUS
 62
8
 10
1445.501584
 20
1429.628900
 11
1448.424206
 21
1471.139947
  0
LINE
  8
CutLine
  6
CONTINUOUS
 62
8
 10
1448.424206
 20
1471.139947
 11
1453.763020
 21
1475.776440
  0
LINE
  8
CutLine
  6
CONTINUOUS
 62
8
 10
1461.125760
 20
1398.912393
 11
1459.452362
 21
1399.574567
  0
LINE
  8
CutLine
  6
CONTINUOUS
 62
8
 10
1449.146861
 20
1421.785156
 11
1450.138077
 21
1424.290086
  0
LINE
  8
CutLine
  6
CONTINUOUS
 62
8
 10
1348.934280
 20
1396.405763
 11
1351.068573
 21
1394.761993
  0
LINE
  8
CutLine
  6
CONTINUOUS
 62
8
 10
1353.592974
 20
1370.407506
 11
1352.494867
 21
1368.981710
  0
LINE
  8
CutLine
  6
CONTINUOUS
 62
8
 10
1230.656106
 20
1305.233780
 11
1236.917876
 21
1308.518630
  0
LINE
  8
CutLine
  6
CONTINUOUS
 62
8
 10
1236.917876
 20
1308.518630
 11
1262.948084
 21
1300.401636
  0
LINE
  8
CutLine
  6
CONTINUOUS
 62
8
 10
1598.420907
 20
1406.562680
 11
1605.435797
 21
1405.673118
  0
LINE
  8
CutLine
  6
CONTINUOUS
 62
8
 10
1605.435797
 20
1405.673118
 11
1656.855314
 21
1339.318613
  0
LINE
  8
CutLine
  6
CONTINUOUS
 62
8
 10
1656.855314
 20
1339.318613
 11
1655.965752
 21
1332.303723
  0
LINE
  8
CutLine
  6
CONTINUOUS
 62
8
 10
1573.160761
 20
1385.873412
 11
1591.360372
 21
1406.176883
  0
LINE
  8
CutLine
  6
CONTINUOUS
 62
8
 10
1591.360372
 20
1406.176883
 11
1598.420907
 21
1406.562680
  0
LINE
  8
CutLine
  6
CONTINUOUS
 62
8
 10
1504.502603
 20
1454.915178
 11
1511.195474
 21
1457.196730
  0
LINE
  8
CutLine
  6
CONTINUOUS
 62
8
 10
1511.195474
 20
1457.196730
 11
1587.595801
 21
1419.642648
  0
LINE
  8
CutLine
  6
CONTINUOUS
 62
8
 10
1587.595801
 20
1419.642648
 11
1589.877353
 21
1412.949777
  0
LINE
  8
CutLine
  6
CONTINUOUS
 62
8
 10
1234.722736
 20
1315.095319
 11
1233.254426
 21
1322.012260
  0
LINE
  8
CutLine
  6
CONTINUOUS
 62
8
 10
1233.254426
 20
1322.012260
 11
1279.639264
 21
1393.396891
  0
LINE
  8
CutLine
  6
CONTINUOUS
 62
8
 10
1279.639264
 20
1393.396891
 11
1286.556204
 21
1394.865201
  0
LINE
  8
CutLine
  6
CONTINUOUS
 62
8
 10
1220.622630
 20
1200.278042
 11
1224.444818
 21
1206.227065
  0
LINE
  8
CutLine
  6
CONTINUOUS
 62
8
 10
1224.444818
 20
1206.227065
 11
1253.497865
 21
1212.550849
  0
LINE
  8
CutLine
  6
CONTINUOUS
 62
8
 10
1253.057817
 20
1112.109114
 11
1246.638999
 21
1115.075388
  0
LINE
  8
CutLine
  6
CONTINUOUS
 62
8
 10
1246.638999
 20
1115.075388
 11
1217.656357
 21
1193.859224
  0
LINE
  8
CutLine
  6
CONTINUOUS
 62
8
 10
1217.656357
 20
1193.859224
 11
1220.622630
 21
1200.278042
  0
LINE
  8
CutLine
  6
CONTINUOUS
 62
8
 10
1660.793814
 20
1321.556813
 11
1666.629031
 21
1317.563038
  0
LINE
  8
CutLine
  6
CONTINUOUS
 62
8
 10
1666.629031
 20
1317.563038
 11
1682.087150
 21
1235.052835
  0
LINE
  8
CutLine
  6
CONTINUOUS
 62
8
 10
1682.087150
 20
1235.052835
 11
1678.093375
 21
1229.217618
  0
LINE
  8
CutLine
  6
CONTINUOUS
 62
8
 10
1626.272044
 20
1315.259967
 11
1654.464081
 21
1324.708714
  0
LINE
  8
CutLine
  6
CONTINUOUS
 62
8
 10
1654.464081
 20
1324.708714
 11
1660.793814
 21
1321.556813
  0
LINE
  8
CutLine
  6
CONTINUOUS
 62
8
 10
1677.083700
 20
1217.974618
 11
1680.508116
 21
1211.788070
  0
LINE
  8
CutLine
  6
CONTINUOUS
 62
8
 10
1680.508116
 20
1211.788070
 11
1656.993745
 21
1129.968786
  0
LINE
  8
CutLine
  6
CONTINUOUS
 62
8
 10
1656.993745
 20
1129.968786
 11
1650.807197
 21
1126.544371
  0
LINE
  8
CutLine
  6
CONTINUOUS
 62
8
 10
1644.729087
 20
1229.068252
 11
1673.080621
 21
1223.803456
  0
LINE
  8
CutLine
  6
CONTINUOUS
 62
8
 10
1673.080621
 20
1223.803456
 11
1677.083700
 21
1217.974618
  0
LINE
  8
CutLine
  6
CONTINUOUS
 62
8
 10
1259.683349
 20
1102.969820
 11
1260.136164
 21
1110.026374
  0
LINE
  8
CutLine
  6
CONTINUOUS
 62
8
 10
1260.136164
 20
1110.026374
 11
1281.790339
 21
1129.069056
  0
LINE
  8
CutLine
  6
CONTINUOUS
 62
8
 10
1329.079754
 20
1037.899981
 11
1322.012343
 21
1037.672581
  0
LINE
  8
CutLine
  6
CONTINUOUS
 62
8
 10
1322.012343
 20
1037.672581
 11
1259.910749
 21
1095.902409
  0
LINE
  8
CutLine
  6
CONTINUOUS
 62
8
 10
1259.910749
 20
1095.902409
 11
1259.683349
 21
1102.969820
  0
LINE
  8
CutLine
  6
CONTINUOUS
 62
8
 10
1397.960574
 20
1418.517679
 11
1402.631891
 21
1423.826050
  0
LINE
  8
CutLine
  6
CONTINUOUS
 62
8
 10
1402.631891
 20
1423.826050
 11
1444.221377
 21
1426.480915
  0
LINE
  8
CutLine
  6
CONTINUOUS
 62
8
 10
1444.221377
 20
1426.480915
 11
1449.252926
 21
1422.053197
  0
LINE
  8
CutLine
  6
CONTINUOUS
 62
8
 10
1396.705126
 20
1418.171770
 11
1398.261788
 21
1417.329499
  0
LINE
  8
CutLine
  6
CONTINUOUS
 62
8
 10
1350.840193
 20
1394.937884
 11
1352.282013
 21
1399.416821
  0
LINE
  8
CutLine
  6
CONTINUOUS
 62
8
 10
1356.388582
 20
1403.110402
 11
1389.974214
 21
1420.338525
  0
LINE
  8
CutLine
  6
CONTINUOUS
 62
8
 10
1389.974214
 20
1420.338525
 11
1396.705126
 21
1418.171770
  0
LINE
  8
CutLine
  6
CONTINUOUS
 62
8
 10
1350.902511
 20
1367.594684
 11
1353.982037
 21
1367.124864
  0
LINE
  8
CutLine
  6
CONTINUOUS
 62
8
 10
1460.799478
 20
1396.555892
 11
1463.203804
 21
1398.536659
  0
LINE
  8
CutLine
  6
CONTINUOUS
 62
8
 10
1463.527220
 20
1062.206030
 11
1457.241325
 21
1065.444475
  0
LINE
  8
CutLine
  6
CONTINUOUS
 62
8
 10
1457.241325
 20
1065.444475
 11
1448.129440
 21
1093.922277
  0
LINE
  8
CutLine
  6
CONTINUOUS
 62
8
 10
1448.129440
 20
1093.922277
 11
1451.367884
 21
1100.208172
  0
LINE
  8
CutLine
  6
CONTINUOUS
 62
8
 10
1580.051517
 20
1046.294486
 11
1573.015517
 21
1046.997834
  0
LINE
  8
CutLine
  6
CONTINUOUS
 62
8
 10
1573.015517
 20
1046.997834
 11
1557.856818
 21
1065.523794
  0
LINE
  8
CutLine
  6
CONTINUOUS
 62
8
 10
1644.805614
 20
1117.575586
 11
1645.144496
 21
1110.512643
  0
LINE
  8
CutLine
  6
CONTINUOUS
 62
8
 10
1645.144496
 20
1110.512643
 11
1587.114460
 21
1046.633367
  0
LINE
  8
CutLine
  6
CONTINUOUS
 62
8
 10
1587.114460
 20
1046.633367
 11
1580.051517
 21
1046.294486
  0
LINE
  8
CutLine
  6
CONTINUOUS
 62
8
 10
1622.044962
 20
1142.318398
 11
1644.046405
 21
1124.605778
  0
LINE
  8
CutLine
  6
CONTINUOUS
 62
8
 10
1644.046405
 20
1124.605778
 11
1644.805614
 21
1117.575586
  0
LINE
  8
CutLine
  6
CONTINUOUS
 62
8
 10
1572.532844
 20
1041.010272
 11
1569.821511
 21
1034.479676
  0
LINE
  8
CutLine
  6
CONTINUOUS
 62
8
 10
1569.821511
 20
1034.479676
 11
1490.061763
 21
1001.518645
  0
LINE
  8
CutLine
  6
CONTINUOUS
 62
8
 10
1490.061763
 20
1001.518645
 11
1483.531167
 21
1004.229978
  0
LINE
  8
CutLine
  6
CONTINUOUS
 62
8
 10
1483.531167
 20
1004.229978
 11
1477.173766
 21
1007.325693
  0
LINE
  8
CutLine
  6
CONTINUOUS
 62
8
 10
1477.173766
 20
1007.325693
 11
1460.431504
 21
1055.848629
  0
LINE
  8
CutLine
  6
CONTINUOUS
 62
8
 10
1460.431504
 20
1055.848629
 11
1463.527220
 21
1062.206030
  0
LINE
  8
CutLine
  6
CONTINUOUS
 62
8
 10
963.774554
 20
946.174265
 11
960.922661
 21
939.703817
  0
LINE
  8
CutLine
  6
CONTINUOUS
 62
8
 10
960.922661
 20
939.703817
 11
893.441921
 21
913.510523
  0
LINE
  8
CutLine
  6
CONTINUOUS
 62
8
 10
893.441921
 20
913.510523
 11
886.971472
 21
916.362416
  0
LINE
  8
CutLine
  6
CONTINUOUS
 62
8
 10
1014.024846
 20
984.569379
 11
970.835390
 21
945.794015
  0
LINE
  8
CutLine
  6
CONTINUOUS
 62
8
 10
970.835390
 20
945.794015
 11
963.774554
 21
946.174265
  0
LINE
  8
CutLine
  6
CONTINUOUS
 62
8
 10
1074.707137
 20
1157.482687
 11
1079.058316
 21
1151.908887
  0
LINE
  8
CutLine
  6
CONTINUOUS
 62
8
 10
1079.058316
 20
1151.908887
 11
1072.046226
 21
1094.986252
  0
LINE
  8
CutLine
  6
CONTINUOUS
 62
8
 10
1104.888334
 20
1392.459667
 11
1110.905134
 21
1388.745085
  0
LINE
  8
CutLine
  6
CONTINUOUS
 62
8
 10
1110.905134
 20
1388.745085
 11
1117.849289
 21
1359.392440
  0
LINE
  8
CutLine
  6
CONTINUOUS
 62
8
 10
1117.849289
 20
1359.392440
 11
1114.134707
 21
1353.375640
  0
LINE
  8
CutLine
  6
CONTINUOUS
 62
8
 10
1114.134707
 20
1353.375640
 11
1120.151507
 21
1349.661058
  0
LINE
  8
CutLine
  6
CONTINUOUS
 62
8
 10
1120.151507
 20
1349.661058
 11
1123.855428
 21
1334.004732
  0
LINE
  8
CutLine
  6
CONTINUOUS
 62
8
 10
829.891871
 20
1523.249355
 11
834.366058
 21
1528.724906
  0
LINE
  8
CutLine
  6
CONTINUOUS
 62
8
 10
834.366058
 20
1528.724906
 11
905.366791
 21
1535.870578
  0
LINE
  8
CutLine
  6
CONTINUOUS
 62
8
 10
905.366791
 20
1535.870578
 11
910.842341
 21
1531.396391
  0
LINE
  8
CutLine
  6
CONTINUOUS
 62
8
 10
910.842341
 20
1531.396391
 11
916.961541
 21
1534.939751
  0
LINE
  8
CutLine
  6
CONTINUOUS
 62
8
 10
916.961541
 20
1534.939751
 11
948.097325
 21
1526.639591
  0
LINE
  8
CutLine
  6
CONTINUOUS
 62
8
 10
948.097325
 20
1526.639591
 11
951.640684
 21
1520.520391
  0
LINE
  8
CutLine
  6
CONTINUOUS
 62
8
 10
725.000000
 20
730.992468
 11
727.068510
 21
737.754218
  0
LINE
  8
CutLine
  6
CONTINUOUS
 62
8
 10
727.068510
 20
737.754218
 11
753.703123
 21
751.910382
  0
LINE
  8
CutLine
  6
CONTINUOUS
 62
8
 10
753.703123
 20
751.910382
 11
760.464873
 21
749.841872
  0
LINE
  8
CutLine
  6
CONTINUOUS
 62
8
 10
1019.946359
 20
1557.397133
 11
1018.354709
 21
1564.286738
  0
LINE
  8
CutLine
  6
CONTINUOUS
 62
8
 10
1018.354709
 20
1564.286738
 11
1040.221572
 21
1599.292397
  0
LINE
  8
CutLine
  6
CONTINUOUS
 62
8
 10
1040.221572
 20
1599.292397
 11
1047.111177
 21
1600.884047
  0
LINE
  8
CutLine
  6
CONTINUOUS
 62
8
 10
990.448309
 20
1510.175078
 11
988.856661
 21
1517.064683
  0
LINE
  8
CutLine
  6
CONTINUOUS
 62
8
 10
988.856661
 20
1517.064683
 11
1013.056754
 21
1555.805485
  0
LINE
  8
CutLine
  6
CONTINUOUS
 62
8
 10
1013.056754
 20
1555.805485
 11
1019.946359
 21
1557.397133
  0
LINE
  8
CutLine
  6
CONTINUOUS
 62
8
 10
1093.195812
 20
1504.903517
 11
1093.946119
 21
1497.872370
  0
LINE
  8
CutLine
  6
CONTINUOUS
 62
8
 10
1093.946119
 20
1497.872370
 11
1074.912927
 21
1474.291777
  0
LINE
  8
CutLine
  6
CONTINUOUS
 62
8
 10
1047.111177
 20
1600.884047
 11
1053.989118
 21
1602.525365
  0
LINE
  8
CutLine
  6
CONTINUOUS
 62
8
 10
1053.989118
 20
1602.525365
 11
1063.350761
 21
1596.770946
  0
LINE
  8
CutLine
  6
CONTINUOUS
 62
8
 10
1063.350761
 20
1596.770946
 11
1064.992079
 21
1589.893005
  0
LINE
  8
CutLine
  6
CONTINUOUS
 62
8
 10
1186.677531
 20
1464.724794
 11
1193.506430
 21
1462.890092
  0
LINE
  8
CutLine
  6
CONTINUOUS
 62
8
 10
1193.506430
 20
1462.890092
 11
1198.994453
 21
1453.369835
  0
LINE
  8
CutLine
  6
CONTINUOUS
 62
8
 10
1198.994453
 20
1453.369835
 11
1197.159751
 21
1446.540935
  0
LINE
  8
CutLine
  6
CONTINUOUS
 62
8
 10
834.064155
 20
1317.224818
 11
834.826487
 21
1319.076345
  0
LINE
  8
CutLine
  6
CONTINUOUS
 62
8
 10
839.011479
 20
1266.869669
 11
831.973160
 21
1267.549417
  0
LINE
  8
CutLine
  6
CONTINUOUS
 62
8
 10
831.973160
 20
1267.549417
 11
807.714556
 21
1296.994642
  0
LINE
  8
CutLine
  6
CONTINUOUS
 62
8
 10
807.714556
 20
1296.994642
 11
808.394304
 21
1304.032961
  0
LINE
  8
CutLine
  6
CONTINUOUS
 62
8
 10
833.253680
 20
1316.104999
 11
835.114187
 21
1316.119247
  0
LINE
  8
CutLine
  6
CONTINUOUS
 62
8
 10
850.518372
 20
1299.900289
 11
850.524526
 21
1299.096660
  0
LINE
  8
CutLine
  6
CONTINUOUS
 62
8
 10
808.394304
 20
1304.032961
 11
813.247218
 21
1311.947972
  0
LINE
  8
CutLine
  6
CONTINUOUS
 62
8
 10
813.247218
 20
1311.947972
 11
817.593586
 21
1314.058625
  0
LINE
  8
CutLine
  6
CONTINUOUS
 62
8
 10
828.700960
 20
1317.681359
 11
833.253680
 21
1316.104999
  0
LINE
  8
CutLine
  6
CONTINUOUS
 62
8
 10
983.123253
 20
1374.054581
 11
988.473133
 21
1369.430861
  0
LINE
  8
CutLine
  6
CONTINUOUS
 62
8
 10
988.473133
 20
1369.430861
 11
991.243509
 21
1331.380579
  0
LINE
  8
CutLine
  6
CONTINUOUS
 62
8
 10
991.243509
 20
1331.380579
 11
986.619789
 21
1326.030699
  0
LINE
  8
CutLine
  6
CONTINUOUS
 62
8
 10
956.808599
 20
1365.612844
 11
959.562836
 21
1370.968843
  0
LINE
  8
CutLine
  6
CONTINUOUS
 62
8
 10
964.120525
 20
1373.209491
 11
976.834906
 21
1377.288262
  0
LINE
  8
CutLine
  6
CONTINUOUS
 62
8
 10
976.834906
 20
1377.288262
 11
983.123253
 21
1374.054581
  0
LINE
  8
CutLine
  6
CONTINUOUS
 62
8
 10
956.036083
 20
1341.385422
 11
954.642189
 21
1342.871135
  0
LINE
  8
CutLine
  6
CONTINUOUS
 62
8
 10
954.258454
 20
1363.220301
 11
956.808599
 21
1365.612844
  0
LINE
  8
CutLine
  6
CONTINUOUS
 62
8
 10
967.282886
 20
1282.573032
 11
966.266234
 21
1275.575431
  0
LINE
  8
CutLine
  6
CONTINUOUS
 62
8
 10
966.266234
 20
1275.575431
 11
937.677248
 21
1254.239786
  0
LINE
  8
CutLine
  6
CONTINUOUS
 62
8
 10
986.619789
 20
1326.030699
 11
989.155316
 21
1319.429858
  0
LINE
  8
CutLine
  6
CONTINUOUS
 62
8
 10
989.155316
 20
1319.429858
 11
973.883727
 21
1285.108559
  0
LINE
  8
CutLine
  6
CONTINUOUS
 62
8
 10
973.883727
 20
1285.108559
 11
967.282886
 21
1282.573032
  0
LINE
  8
CutLine
  6
CONTINUOUS
 62
8
 10
942.213923
 20
1310.321544
 11
941.969861
 21
1310.956919
  0
LINE
  8
CutLine
  6
CONTINUOUS
 62
8
 10
953.976952
 20
1340.594464
 11
956.036083
 21
1341.385422
  0
LINE
  8
CutLine
  6
CONTINUOUS
 62
8
 10
941.468966
 20
1310.429776
 11
942.213923
 21
1310.321544
  0
LINE
  8
CutLine
  6
CONTINUOUS
 62
8
 10
850.524526
 20
1299.096660
 11
851.293070
 21
1299.417656
  0
LINE
  8
CutLine
  6
CONTINUOUS
 62
8
 10
883.009752
 20
1248.796571
 11
876.484932
 21
1246.071368
  0
LINE
  8
CutLine
  6
CONTINUOUS
 62
8
 10
876.484932
 20
1246.071368
 11
841.736682
 21
1260.344849
  0
LINE
  8
CutLine
  6
CONTINUOUS
 62
8
 10
841.736682
 20
1260.344849
 11
839.011479
 21
1266.869669
  0
LINE
  8
CutLine
  6
CONTINUOUS
 62
8
 10
832.784757
 20
1343.041843
 11
833.338230
 21
1342.459155
  0
LINE
  8
CutLine
  6
CONTINUOUS
 62
8
 10
833.510686
 20
1320.091459
 11
832.161688
 21
1318.810095
  0
LINE
  8
CutLine
  6
CONTINUOUS
 62
8
 10
805.888295
 20
1310.240877
 11
800.512834
 21
1314.834832
  0
LINE
  8
CutLine
  6
CONTINUOUS
 62
8
 10
800.512834
 20
1314.834832
 11
797.531310
 21
1352.869179
  0
LINE
  8
CutLine
  6
CONTINUOUS
 62
8
 10
797.531310
 20
1352.869179
 11
802.125265
 21
1358.244640
  0
LINE
  8
CutLine
  6
CONTINUOUS
 62
8
 10
833.560764
 20
1343.344352
 11
832.784757
 21
1343.041843
  0
LINE
  8
CutLine
  6
CONTINUOUS
 62
8
 10
802.125265
 20
1358.244640
 11
799.557018
 21
1364.832819
  0
LINE
  8
CutLine
  6
CONTINUOUS
 62
8
 10
799.557018
 20
1364.832819
 11
814.658130
 21
1399.229470
  0
LINE
  8
CutLine
  6
CONTINUOUS
 62
8
 10
814.658130
 20
1399.229470
 11
821.246309
 21
1401.797717
  0
LINE
  8
CutLine
  6
CONTINUOUS
 62
8
 10
949.438226
 20
1418.137311
 11
956.480210
 21
1417.496637
  0
LINE
  8
CutLine
  6
CONTINUOUS
 62
8
 10
956.480210
 20
1417.496637
 11
980.901852
 21
1388.186529
  0
LINE
  8
CutLine
  6
CONTINUOUS
 62
8
 10
980.901852
 20
1388.186529
 11
980.261178
 21
1381.144545
  0
LINE
  8
CutLine
  6
CONTINUOUS
 62
8
 10
955.460606
 20
1368.952108
 11
951.964156
 21
1368.903764
  0
LINE
  8
CutLine
  6
CONTINUOUS
 62
8
 10
938.113364
 20
1383.816553
 11
938.085198
 21
1385.853583
  0
LINE
  8
CutLine
  6
CONTINUOUS
 62
8
 10
906.571181
 20
1398.616169
 11
906.110133
 21
1398.021098
  0
LINE
  8
CutLine
  6
CONTINUOUS
 62
8
 10
944.327667
 20
1425.601456
 11
946.680683
 21
1424.648528
  0
LINE
  8
CutLine
  6
CONTINUOUS
 62
8
 10
946.680683
 20
1424.648528
 11
949.438226
 21
1418.137311
  0
LINE
  8
CutLine
  6
CONTINUOUS
 62
8
 10
938.085198
 20
1385.853583
 11
936.054025
 21
1384.993368
  0
LINE
  8
CutLine
  6
CONTINUOUS
 62
8
 10
906.836613
 20
1397.989421
 11
906.571181
 21
1398.616169
  0
LINE
  8
CutLine
  6
CONTINUOUS
 62
8
 10
886.971472
 20
916.362416
 11
881.364332
 21
912.054286
  0
LINE
  8
CutLine
  6
CONTINUOUS
 62
8
 10
881.364332
 20
912.054286
 11
834.510677
 21
918.192628
  0
LINE
  8
CutLine
  6
CONTINUOUS
 62
8
 10
834.510677
 20
918.192628
 11
830.202547
 21
923.799767
  0
LINE
  8
CutLine
  6
CONTINUOUS
 62
8
 10
1096.307379
 20
1576.710448
 11
1097.451042
 21
1569.732480
  0
LINE
  8
CutLine
  6
CONTINUOUS
 62
8
 10
1097.451042
 20
1569.732480
 11
1084.261305
 21
1551.371739
  0
LINE
  8
CutLine
  6
CONTINUOUS
 62
8
 10
1084.261305
 20
1551.371739
 11
1077.283337
 21
1550.228076
  0
LINE
  8
CutLine
  6
CONTINUOUS
 62
8
 10
1064.992079
 20
1589.893005
 11
1071.540336
 21
1592.561400
  0
LINE
  8
CutLine
  6
CONTINUOUS
 62
8
 10
1071.540336
 20
1592.561400
 11
1093.638984
 21
1583.258705
  0
LINE
  8
CutLine
  6
CONTINUOUS
 62
8
 10
1093.638984
 20
1583.258705
 11
1096.307379
 21
1576.710448
  0
LINE
  8
CutLine
  6
CONTINUOUS
 62
8
 10
1077.283337
 20
1550.228076
 11
1074.554293
 21
1543.704863
  0
LINE
  8
CutLine
  6
CONTINUOUS
 62
8
 10
1074.554293
 20
1543.704863
 11
1054.096676
 21
1535.315596
  0
LINE
  8
CutLine
  6
CONTINUOUS
 62
8
 10
1054.096676
 20
1535.315596
 11
1047.177409
 21
1537.882226
  0
LINE
  8
CutLine
  6
CONTINUOUS
 62
8
 10
1174.383680
 20
1496.399523
 11
1180.854051
 21
1493.547453
  0
LINE
  8
CutLine
  6
CONTINUOUS
 62
8
 10
1180.854051
 20
1493.547453
 11
1189.529601
 21
1471.195165
  0
LINE
  8
CutLine
  6
CONTINUOUS
 62
8
 10
1189.529601
 20
1471.195165
 11
1186.677531
 21
1464.724794
  0
LINE
  8
CutLine
  6
CONTINUOUS
 62
8
 10
1147.375151
 20
1478.130163
 11
1148.715218
 21
1485.073089
  0
LINE
  8
CutLine
  6
CONTINUOUS
 62
8
 10
1148.715218
 20
1485.073089
 11
1167.440754
 21
1497.739590
  0
LINE
  8
CutLine
  6
CONTINUOUS
 62
8
 10
1167.440754
 20
1497.739590
 11
1174.383680
 21
1496.399523
  0
LINE
  8
CutLine
  6
CONTINUOUS
 62
8
 10
1134.184875
 20
1448.384518
 11
1131.814470
 21
1455.373438
  0
LINE
  8
CutLine
  6
CONTINUOUS
 62
8
 10
1131.814470
 20
1455.373438
 11
1140.777543
 21
1475.586236
  0
LINE
  8
CutLine
  6
CONTINUOUS
 62
8
 10
1140.777543
 20
1475.586236
 11
1147.375151
 21
1478.130163
  0
LINE
  8
CutLine
  6
CONTINUOUS
 62
8
 10
938.953971
 20
1160.693133
 11
931.895695
 21
1161.118266
  0
LINE
  8
CutLine
  6
CONTINUOUS
 62
8
 10
931.895695
 20
1161.118266
 11
903.297952
 21
1193.381796
  0
LINE
  8
CutLine
  6
CONTINUOUS
 62
8
 10
903.297952
 20
1193.381796
 11
903.723085
 21
1200.440072
  0
LINE
  8
CutLine
  6
CONTINUOUS
 62
8
 10
810.196051
 20
906.763059
 11
816.163776
 21
910.555981
  0
LINE
  8
CutLine
  6
CONTINUOUS
 62
8
 10
816.163776
 20
910.555981
 11
868.266675
 21
898.946752
  0
LINE
  8
CutLine
  6
CONTINUOUS
 62
8
 10
868.266675
 20
898.946752
 11
872.059597
 21
892.979027
  0
LINE
  8
CutLine
  6
CONTINUOUS
 62
8
 10
1443.658687
 20
1124.744981
 11
1442.939571
 21
1131.779388
  0
LINE
  8
CutLine
  6
CONTINUOUS
 62
8
 10
1442.939571
 20
1131.779388
 11
1447.384085
 21
1137.236086
  0
LINE
  8
CutLine
  6
CONTINUOUS
 62
8
 10
1447.384085
 20
1137.236086
 11
1454.418492
 21
1137.955201
  0
LINE
  8
CutLine
  6
CONTINUOUS
 62
8
 10
1454.418492
 20
1137.955201
 11
1456.723796
 21
1144.639928
  0
LINE
  8
CutLine
  6
CONTINUOUS
 62
8
 10
1456.723796
 20
1144.639928
 11
1492.758985
 21
1162.194188
  0
LINE
  8
CutLine
  6
CONTINUOUS
 62
8
 10
1492.758985
 20
1162.194188
 11
1499.443712
 21
1159.888884
  0
LINE
  8
CutLine
  6
CONTINUOUS
 62
8
 10
858.244551
 20
811.946287
 11
828.091941
 21
815.394960
  0
LINE
  8
CutLine
  6
CONTINUOUS
 62
8
 10
828.091941
 20
815.394960
 11
823.692492
 21
820.930739
  0
LINE
  8
CutLine
  6
CONTINUOUS
 62
8
 10
805.127746
 20
902.861033
 11
812.360420
 21
902.197041
  0
LINE
  8
CutLine
  6
CONTINUOUS
 62
8
 10
812.360420
 20
902.197041
 11
816.260534
 21
897.749834
  0
LINE
  8
CutLine
  6
CONTINUOUS
 62
8
 10
770.931613
 20
879.209813
 11
778.330765
 21
881.620578
  0
LINE
  8
CutLine
  6
CONTINUOUS
 62
8
 10
778.330765
 20
881.620578
 11
803.194889
 21
871.608740
  0
LINE
  8
CutLine
  6
CONTINUOUS
 62
8
 10
803.194889
 20
871.608740
 11
805.965410
 21
865.103034
  0
LINE
  8
CutLine
  6
CONTINUOUS
 62
8
 10
823.692492
 20
820.930739
 11
821.740984
 21
814.134298
  0
LINE
  8
CutLine
  6
CONTINUOUS
 62
8
 10
821.740984
 20
814.134298
 11
804.157376
 21
804.395857
  0
LINE
  8
CutLine
  6
CONTINUOUS
 62
8
 10
804.157376
 20
804.395857
 11
797.360935
 21
806.347365
  0
LINE
  8
CutLine
  6
CONTINUOUS
 62
8
 10
767.209448
 20
877.338098
 11
772.345366
 21
875.936673
  0
LINE
  8
CutLine
  6
CONTINUOUS
 62
8
 10
767.349682
 20
833.441253
 11
762.333734
 21
838.425254
  0
LINE
  8
CutLine
  6
CONTINUOUS
 62
8
 10
762.333734
 20
838.425254
 11
762.239201
 21
868.016649
  0
LINE
  8
CutLine
  6
CONTINUOUS
 62
8
 10
762.239201
 20
868.016649
 11
767.209448
 21
877.338098
  0
LINE
  8
CutLine
  6
CONTINUOUS
 62
8
 10
797.360935
 20
806.347365
 11
795.764981
 21
799.019461
  0
LINE
  8
CutLine
  6
CONTINUOUS
 62
8
 10
795.764981
 20
799.019461
 11
771.339969
 21
781.338135
  0
LINE
  8
CutLine
  6
CONTINUOUS
 62
8
 10
771.339969
 20
781.338135
 11
764.357882
 21
782.456375
  0
LINE
  8
CutLine
  6
CONTINUOUS
 62
8
 10
764.357882
 20
782.456375
 11
759.659365
 21
787.740686
  0
LINE
  8
CutLine
  6
CONTINUOUS
 62
8
 10
759.659365
 20
787.740686
 11
762.065371
 21
828.742736
  0
LINE
  8
CutLine
  6
CONTINUOUS
 62
8
 10
762.065371
 20
828.742736
 11
767.349682
 21
833.441253
  0
LINE
  8
CutLine
  6
CONTINUOUS
 62
8
 10
708.839596
 20
289.064699
 11
706.910732
 21
282.261797
  0
LINE
  8
CutLine
  6
CONTINUOUS
 62
8
 10
706.910732
 20
282.261797
 11
689.692495
 21
272.650645
  0
LINE
  8
CutLine
  6
CONTINUOUS
 62
8
 10
689.692495
 20
272.650645
 11
682.889593
 21
274.579510
  0
LINE
  8
CutLine
  6
CONTINUOUS
 62
8
 10
663.112178
 20
229.203926
 11
665.060183
 21
222.406480
  0
LINE
  8
CutLine
  6
CONTINUOUS
 62
8
 10
665.060183
 20
222.406480
 11
641.865180
 21
180.576760
  0
LINE
  8
CutLine
  6
CONTINUOUS
 62
8
 10
641.865180
 20
180.576760
 11
634.742659
 21
178.042516
  0
LINE
  8
CutLine
  6
CONTINUOUS
 62
8
 10
634.742659
 20
178.042516
 11
629.922645
 21
183.216244
  0
LINE
  8
CutLine
  6
CONTINUOUS
 62
8
 10
629.922645
 20
183.216244
 11
631.882037
 21
238.576423
  0
LINE
  8
CutLine
  6
CONTINUOUS
 62
8
 10
631.882037
 20
238.576423
 11
637.082856
 21
244.161855
  0
LINE
  8
CutLine
  6
CONTINUOUS
 62
8
 10
637.082856
 20
244.161855
 11
631.758920
 21
248.815425
  0
LINE
  8
CutLine
  6
CONTINUOUS
 62
8
 10
631.758920
 20
248.815425
 11
629.824458
 21
277.607339
  0
LINE
  8
CutLine
  6
CONTINUOUS
 62
8
 10
629.824458
 20
277.607339
 11
634.478027
 21
282.931275
  0
LINE
  8
CutLine
  6
CONTINUOUS
 62
8
 10
634.478027
 20
282.931275
 11
628.689316
 21
286.992163
  0
LINE
  8
CutLine
  6
CONTINUOUS
 62
8
 10
628.689316
 20
286.992163
 11
628.227928
 21
289.622343
  0
LINE
  8
CutLine
  6
CONTINUOUS
 62
8
 10
628.227928
 20
289.622343
 11
632.288816
 21
295.411055
  0
LINE
  8
CutLine
  6
CONTINUOUS
 62
8
 10
682.889593
 20
274.579510
 11
685.475351
 21
267.998184
  0
LINE
  8
CutLine
  6
CONTINUOUS
 62
8
 10
685.475351
 20
267.998184
 11
669.693505
 21
231.789684
  0
LINE
  8
CutLine
  6
CONTINUOUS
 62
8
 10
669.693505
 20
231.789684
 11
663.112178
 21
229.203926
  0
LINE
  8
CutLine
  6
CONTINUOUS
 62
8
 10
690.112341
 20
430.572514
 11
697.131500
 21
431.427740
  0
LINE
  8
CutLine
  6
CONTINUOUS
 62
8
 10
697.131500
 20
431.427740
 11
711.842140
 21
419.912503
  0
LINE
  8
CutLine
  6
CONTINUOUS
 62
8
 10
711.842140
 20
419.912503
 11
712.697366
 21
412.893345
  0
LINE
  8
CutLine
  6
CONTINUOUS
 62
8
 10
640.985958
 20
430.744457
 11
635.676348
 21
435.414365
  0
LINE
  8
CutLine
  6
CONTINUOUS
 62
8
 10
635.676348
 20
435.414365
 11
633.819605
 21
464.380052
  0
LINE
  8
CutLine
  6
CONTINUOUS
 62
8
 10
633.819605
 20
464.380052
 11
638.489513
 21
469.689662
  0
LINE
  8
CutLine
  6
CONTINUOUS
 62
8
 10
679.112534
 20
478.833200
 11
685.098638
 21
475.069351
  0
LINE
  8
CutLine
  6
CONTINUOUS
 62
8
 10
685.098638
 20
475.069351
 11
693.876190
 21
436.558619
  0
LINE
  8
CutLine
  6
CONTINUOUS
 62
8
 10
693.876190
 20
436.558619
 11
690.112341
 21
430.572514
  0
LINE
  8
CutLine
  6
CONTINUOUS
 62
8
 10
657.165086
 20
534.525365
 11
663.650106
 21
531.706763
  0
LINE
  8
CutLine
  6
CONTINUOUS
 62
8
 10
663.650106
 20
531.706763
 11
681.396242
 21
486.675526
  0
LINE
  8
CutLine
  6
CONTINUOUS
 62
8
 10
681.396242
 20
486.675526
 11
679.112534
 21
478.833200
  0
LINE
  8
CutLine
  6
CONTINUOUS
 62
8
 10
905.619617
 20
381.435585
 11
907.013929
 21
365.047281
  0
LINE
  8
CutLine
  6
CONTINUOUS
 62
8
 10
907.013929
 20
365.047281
 11
898.217945
 21
326.440345
  0
LINE
  8
CutLine
  6
CONTINUOUS
 62
8
 10
898.217945
 20
326.440345
 11
892.232165
 21
322.675981
  0
LINE
  8
CutLine
  6
CONTINUOUS
 62
8
 10
898.562973
 20
376.257938
 11
899.133445
 21
382.878030
  0
LINE
  8
CutLine
  6
CONTINUOUS
 62
8
 10
899.133445
 20
382.878030
 11
905.619617
 21
381.435585
  0
LINE
  8
CutLine
  6
CONTINUOUS
 62
8
 10
893.379200
 20
271.921584
 11
887.155025
 21
275.277124
  0
LINE
  8
CutLine
  6
CONTINUOUS
 62
8
 10
887.155025
 20
275.277124
 11
876.468028
 21
310.966012
  0
LINE
  8
CutLine
  6
CONTINUOUS
 62
8
 10
876.468028
 20
310.966012
 11
877.783532
 21
324.002824
  0
LINE
  8
CutLine
  6
CONTINUOUS
 62
8
 10
892.232165
 20
322.675981
 11
897.343858
 21
317.790228
  0
LINE
  8
CutLine
  6
CONTINUOUS
 62
8
 10
897.343858
 20
317.790228
 11
898.264954
 21
277.033277
  0
LINE
  8
CutLine
  6
CONTINUOUS
 62
8
 10
898.264954
 20
277.033277
 11
893.379200
 21
271.921584
  0
LINE
  8
CutLine
  6
CONTINUOUS
 62
8
 10
742.018215
 20
322.655938
 11
737.659063
 21
317.088372
  0
LINE
  8
CutLine
  6
CONTINUOUS
 62
8
 10
737.659063
 20
317.088372
 11
717.678031
 21
314.656010
  0
LINE
  8
CutLine
  6
CONTINUOUS
 62
8
 10
717.678031
 20
314.656010
 11
712.110464
 21
319.015162
  0
LINE
  8
CutLine
  6
CONTINUOUS
 62
8
 10
711.435200
 20
382.115649
 11
715.802147
 21
387.677104
  0
LINE
  8
CutLine
  6
CONTINUOUS
 62
8
 10
715.802147
 20
387.677104
 11
736.456760
 21
390.162107
  0
LINE
  8
CutLine
  6
CONTINUOUS
 62
8
 10
736.456760
 20
390.162107
 11
742.018215
 21
385.795160
  0
LINE
  8
CutLine
  6
CONTINUOUS
 62
8
 10
551.781249
 20
328.228215
 11
546.600530
 21
333.040714
  0
LINE
  8
CutLine
  6
CONTINUOUS
 62
8
 10
546.600530
 20
333.040714
 11
545.000000
 21
376.477854
  0
LINE
  8
CutLine
  6
CONTINUOUS
 62
8
 10
545.000000
 20
376.477854
 11
549.812499
 21
381.658574
  0
LINE
  8
CutLine
  6
CONTINUOUS
 62
8
 10
634.786030
 20
327.026126
 11
629.273112
 21
322.598064
  0
LINE
  8
CutLine
  6
CONTINUOUS
 62
8
 10
629.273112
 20
322.598064
 11
607.687722
 21
324.953671
  0
LINE
  8
CutLine
  6
CONTINUOUS
 62
8
 10
607.687722
 20
324.953671
 11
603.259660
 21
330.466590
  0
LINE
  8
CutLine
  6
CONTINUOUS
 62
8
 10
601.112850
 20
390.088374
 11
606.619065
 21
394.524769
  0
LINE
  8
CutLine
  6
CONTINUOUS
 62
8
 10
606.619065
 20
394.524769
 11
628.860514
 21
392.131602
  0
LINE
  8
CutLine
  6
CONTINUOUS
 62
8
 10
628.860514
 20
392.131602
 11
633.296910
 21
386.625388
  0
LINE
  8
CutLine
  6
CONTINUOUS
 62
8
 10
588.205989
 20
388.651511
 11
592.622081
 21
394.174023
  0
LINE
  8
CutLine
  6
CONTINUOUS
 62
8
 10
592.622081
 20
394.174023
 11
595.590339
 21
394.504465
  0
LINE
  8
CutLine
  6
CONTINUOUS
 62
8
 10
595.590339
 20
394.504465
 11
601.112850
 21
390.088374
  0
LINE
  8
CutLine
  6
CONTINUOUS
 62
8
 10
660.030447
 20
1598.982040
 11
665.909548
 21
1602.525365
  0
LINE
  8
CutLine
  6
CONTINUOUS
 62
8
 10
665.909548
 20
1602.525365
 11
669.086775
 21
1596.440612
  0
LINE
  8
CutLine
  6
CONTINUOUS
 62
8
 10
669.865119
 20
1549.524444
 11
667.504173
 21
1542.859166
  0
LINE
  8
CutLine
  6
CONTINUOUS
 62
8
 10
667.504173
 20
1542.859166
 11
666.776568
 21
1542.512193
  0
LINE
  8
CutLine
  6
CONTINUOUS
 62
8
 10
666.776568
 20
1542.512193
 11
660.111290
 21
1544.873139
  0
LINE
  8
CutLine
  6
CONTINUOUS
 62
8
 10
669.086775
 20
1596.440612
 11
674.252396
 21
1586.498952
  0
LINE
  8
CutLine
  6
CONTINUOUS
 62
8
 10
674.252396
 20
1586.498952
 11
674.781492
 21
1554.606695
  0
LINE
  8
CutLine
  6
CONTINUOUS
 62
8
 10
674.781492
 20
1554.606695
 11
669.865119
 21
1549.524444
  0
LINE
  8
CutLine
  6
CONTINUOUS
 62
8
 10
635.386833
 20
1542.433976
 11
630.274254
 21
1547.318804
  0
LINE
  8
CutLine
  6
CONTINUOUS
 62
8
 10
630.274254
 20
1547.318804
 11
629.248802
 21
1592.332310
  0
LINE
  8
CutLine
  6
CONTINUOUS
 62
8
 10
629.248802
 20
1592.332310
 11
634.133630
 21
1597.444889
  0
LINE
  8
CutLine
  6
CONTINUOUS
 62
8
 10
645.895849
 20
1542.286995
 11
640.826414
 21
1537.357408
  0
LINE
  8
CutLine
  6
CONTINUOUS
 62
8
 10
640.826414
 20
1537.357408
 11
640.316419
 21
1537.364541
  0
LINE
  8
CutLine
  6
CONTINUOUS
 62
8
 10
640.316419
 20
1537.364541
 11
635.386833
 21
1542.433976
  0
LINE
  8
CutLine
  6
CONTINUOUS
 62
8
 10
660.111290
 20
1544.873139
 11
656.086969
 21
1539.058946
  0
LINE
  8
CutLine
  6
CONTINUOUS
 62
8
 10
656.086969
 20
1539.058946
 11
651.710042
 21
1538.262674
  0
LINE
  8
CutLine
  6
CONTINUOUS
 62
8
 10
651.710042
 20
1538.262674
 11
645.895849
 21
1542.286995
  0
LINE
  8
CutLine
  6
CONTINUOUS
 62
8
 10
922.013929
 20
532.561682
 11
929.603532
 21
534.525365
  0
LINE
  8
CutLine
  6
CONTINUOUS
 62
8
 10
929.603532
 20
534.525365
 11
971.447994
 21
514.905018
  0
LINE
  8
CutLine
  6
CONTINUOUS
 62
8
 10
971.447994
 20
514.905018
 11
973.852369
 21
508.255282
  0
LINE
  8
CutLine
  6
CONTINUOUS
 62
8
 10
922.013929
 20
451.202279
 11
917.013929
 21
456.202279
  0
LINE
  8
CutLine
  6
CONTINUOUS
 62
8
 10
917.013929
 20
456.202279
 11
917.013929
 21
527.561682
  0
LINE
  8
CutLine
  6
CONTINUOUS
 62
8
 10
917.013929
 20
527.561682
 11
922.013929
 21
532.561682
  0
LINE
  8
CutLine
  6
CONTINUOUS
 62
8
 10
973.852369
 20
508.255282
 11
980.823923
 21
509.437417
  0
LINE
  8
CutLine
  6
CONTINUOUS
 62
8
 10
980.823923
 20
509.437417
 11
1024.348784
 21
478.533167
  0
LINE
  8
CutLine
  6
CONTINUOUS
 62
8
 10
1024.348784
 20
478.533167
 11
1025.530919
 21
471.561614
  0
LINE
  8
CutLine
  6
CONTINUOUS
 62
8
 10
952.766149
 20
424.078666
 11
945.708938
 21
423.636204
  0
LINE
  8
CutLine
  6
CONTINUOUS
 62
8
 10
945.708938
 20
423.636204
 11
922.456390
 21
444.145068
  0
LINE
  8
CutLine
  6
CONTINUOUS
 62
8
 10
922.456390
 20
444.145068
 11
922.013929
 21
451.202279
  0
LINE
  8
CutLine
  6
CONTINUOUS
 62
8
 10
1014.776382
 20
470.025576
 11
1020.691049
 21
470.109467
  0
LINE
  8
CutLine
  6
CONTINUOUS
 62
8
 10
1020.691049
 20
470.109467
 11
1026.029491
 21
465.184682
  0
LINE
  8
CutLine
  6
CONTINUOUS
 62
8
 10
997.436322
 20
440.510825
 11
1004.122327
 21
442.812418
  0
LINE
  8
CutLine
  6
CONTINUOUS
 62
8
 10
1004.122327
 20
442.812418
 11
1028.212812
 21
431.060378
  0
LINE
  8
CutLine
  6
CONTINUOUS
 62
8
 10
1028.212812
 20
431.060378
 11
1031.380050
 21
423.952086
  0
LINE
  8
CutLine
  6
CONTINUOUS
 62
8
 10
959.579949
 20
394.759765
 11
953.577892
 21
398.498121
  0
LINE
  8
CutLine
  6
CONTINUOUS
 62
8
 10
953.577892
 20
398.498121
 11
949.027793
 21
418.076608
  0
LINE
  8
CutLine
  6
CONTINUOUS
 62
8
 10
949.027793
 20
418.076608
 11
952.766149
 21
424.078666
  0
LINE
  8
CutLine
  6
CONTINUOUS
 62
8
 10
997.462849
 20
412.470427
 11
993.116301
 21
404.918935
  0
LINE
  8
CutLine
  6
CONTINUOUS
 62
8
 10
993.116301
 20
404.918935
 11
966.226965
 21
392.347881
  0
LINE
  8
CutLine
  6
CONTINUOUS
 62
8
 10
966.226965
 20
392.347881
 11
959.579949
 21
394.759765
  0
LINE
  8
CutLine
  6
CONTINUOUS
 62
8
 10
1031.380050
 20
423.952086
 11
1028.967752
 21
413.667455
  0
LINE
  8
CutLine
  6
CONTINUOUS
 62
8
 10
1028.967752
 20
413.667455
 11
1009.379100
 21
391.487639
  0
LINE
  8
CutLine
  6
CONTINUOUS
 62
8
 10
1009.379100
 20
391.487639
 11
1002.321599
 21
391.049817
  0
LINE
  8
CutLine
  6
CONTINUOUS
 62
8
 10
1002.321599
 20
391.049817
 11
996.339431
 21
394.819918
  0
LINE
  8
CutLine
  6
CONTINUOUS
 62
8
 10
996.339431
 20
394.819918
 11
994.107144
 21
404.661327
  0
LINE
  8
CutLine
  6
CONTINUOUS
 62
8
 10
994.107144
 20
404.661327
 11
997.462849
 21
412.470427
  0
LINE
  8
MountainLine
  6
CONTINUOUS
 62
5
 10
229.951779
 20
1255.740574
 11
251.178883
 21
1277.668013
  0
LINE
  8
MountainLine
  6
CONTINUOUS
 62
5
 10
251.178883
 20
1277.668013
 11
235.401193
 21
1299.977154
  0
LINE
  8
MountainLine
  6
CONTINUOUS
 62
5
 10
235.401193
 20
1299.977154
 11
215.952336
 21
1279.774604
  0
LINE
  8
MountainLine
  6
CONTINUOUS
 62
5
 10
215.952336
 20
1279.774604
 11
229.951779
 21
1255.740574
  0
LINE
  8
ValleyLine
  6
CONTINUOUS
 62
1
 10
154.823360
 20
1324.771681
 11
197.104295
 21
1302.562655
  0
LINE
  8
ValleyLine
  6
CONTINUOUS
 62
1
 10
197.104295
 20
1302.562655
 11
208.014590
 21
1329.433824
  0
LINE
  8
MountainLine
  6
CONTINUOUS
 62
5
 10
208.014590
 20
1329.433824
 11
154.823360
 21
1324.771681
  0
LINE
  8
MountainLine
  6
CONTINUOUS
 62
5
 10
208.014590
 20
1329.433824
 11
169.197646
 21
1346.971665
  0
LINE
  8
MountainLine
  6
CONTINUOUS
 62
5
 10
169.197646
 20
1346.971665
 11
154.823360
 21
1324.771681
  0
LINE
  8
MountainLine
  6
CONTINUOUS
 62
5
 10
197.104295
 20
1302.562655
 11
215.952336
 21
1279.774604
  0
LINE
  8
ValleyLine
  6
CONTINUOUS
 62
1
 10
215.952336
 20
1279.774604
 11
208.014590
 21
1329.433824
  0
LINE
  8
CutLine
  6
CONTINUOUS
 62
8
 10
235.401193
 20
1299.977154
 11
208.014590
 21
1329.433824
  0
LINE
  8
MountainLine
  6
CONTINUOUS
 62
5
 10
417.049518
 20
843.375915
 11
469.467588
 21
855.670377
  0
LINE
  8
ValleyLine
  6
CONTINUOUS
 62
1
 10
469.467588
 20
855.670377
 11
415.864767
 21
853.808253
  0
LINE
  8
MountainLine
  6
CONTINUOUS
 62
5
 10
415.864767
 20
853.808253
 11
417.049518
 21
843.375915
  0
LINE
  8
MountainLine
  6
CONTINUOUS
 62
5
 10
472.068134
 20
829.433796
 11
475.589125
 21
844.105951
  0
LINE
  8
ValleyLine
  6
CONTINUOUS
 62
1
 10
475.589125
 20
844.105951
 11
417.049518
 21
843.375915
  0
LINE
  8
MountainLine
  6
CONTINUOUS
 62
5
 10
417.049518
 20
843.375915
 11
415.853913
 21
828.976534
  0
LINE
  8
MountainLine
  6
CONTINUOUS
 62
5
 10
415.853913
 20
828.976534
 11
472.068134
 21
829.433796
  0
LINE
  8
MountainLine
  6
CONTINUOUS
 62
5
 10
475.589125
 20
844.105951
 11
469.467588
 21
855.670377
  0
LINE
  8
ValleyLine
  6
CONTINUOUS
 62
1
 10
479.798985
 20
842.391552
 11
541.158603
 21
824.293932
  0
LINE
  8
ValleyLine
  6
CONTINUOUS
 62
1
 10
541.158603
 20
824.293932
 11
477.428888
 21
855.259801
  0
LINE
  8
CutLine
  6
CONTINUOUS
 62
8
 10
477.428888
 20
855.259801
 11
479.798985
 21
842.391552
  0
LINE
  8
MountainLine
  6
CONTINUOUS
 62
5
 10
479.798985
 20
842.391552
 11
536.648437
 21
814.874606
  0
LINE
  8
MountainLine
  6
CONTINUOUS
 62
5
 10
536.648437
 20
814.874606
 11
541.158603
 21
824.293932
  0
LINE
  8
CutLine
  6
CONTINUOUS
 62
8
 10
479.798985
 20
842.391552
 11
472.068134
 21
829.433796
  0
LINE
  8
MountainLine
  6
CONTINUOUS
 62
5
 10
472.068134
 20
829.433796
 11
528.674425
 21
801.682876
  0
LINE
  8
MountainLine
  6
CONTINUOUS
 62
5
 10
528.674425
 20
801.682876
 11
536.648437
 21
814.874606
  0
LINE
  8
CutLine
  6
CONTINUOUS
 62
8
 10
580.834171
 20
765.277297
 11
593.871833
 21
766.385702
  0
LINE
  8
ValleyLine
  6
CONTINUOUS
 62
1
 10
593.871833
 20
766.385702
 11
547.191344
 21
819.689494
  0
LINE
  8
ValleyLine
  6
CONTINUOUS
 62
1
 10
547.191344
 20
819.689494
 11
580.834171
 21
765.277297
  0
LINE
  8
CutLine
  6
CONTINUOUS
 62
8
 10
547.191344
 20
819.689494
 11
539.295407
 21
812.854328
  0
LINE
  8
MountainLine
  6
CONTINUOUS
 62
5
 10
539.295407
 20
812.854328
 11
580.834171
 21
765.277297
  0
LINE
  8
CutLine
  6
CONTINUOUS
 62
8
 10
539.295407
 20
812.854328
 11
528.674425
 21
801.682876
  0
LINE
  8
MountainLine
  6
CONTINUOUS
 62
5
 10
528.674425
 20
801.682876
 11
570.374730
 21
754.402114
  0
LINE
  8
CutLine
  6
CONTINUOUS
 62
8
 10
570.374730
 20
754.402114
 11
580.834171
 21
765.277297
  0
LINE
  8
CutLine
  6
CONTINUOUS
 62
8
 10
552.358024
 20
750.870421
 11
584.762564
 21
700.058420
  0
LINE
  8
MountainLine
  6
CONTINUOUS
 62
5
 10
584.762564
 20
700.058420
 11
570.374730
 21
754.402114
  0
LINE
  8
MountainLine
  6
CONTINUOUS
 62
5
 10
570.374730
 20
754.402114
 11
552.358024
 21
750.870421
  0
LINE
  8
MountainLine
  6
CONTINUOUS
 62
5
 10
528.674425
 20
801.682876
 11
519.297849
 21
789.397677
  0
LINE
  8
CutLine
  6
CONTINUOUS
 62
8
 10
519.297849
 20
789.397677
 11
552.358024
 21
750.870421
  0
LINE
  8
MountainLine
  6
CONTINUOUS
 62
5
 10
473.414217
 20
811.123626
 11
472.068134
 21
829.433796
  0
LINE
  8
CutLine
  6
CONTINUOUS
 62
8
 10
415.853913
 20
828.976534
 11
473.414217
 21
811.123626
  0
LINE
  8
CutLine
  6
CONTINUOUS
 62
8
 10
473.414217
 20
811.123626
 11
519.297849
 21
789.397677
  0
LINE
  8
MountainLine
  6
CONTINUOUS
 62
5
 10
598.336519
 20
705.010127
 11
608.711866
 21
706.619315
  0
LINE
  8
ValleyLine
  6
CONTINUOUS
 62
1
 10
608.711866
 20
706.619315
 11
596.368001
 21
758.814699
  0
LINE
  8
MountainLine
  6
CONTINUOUS
 62
5
 10
596.368001
 20
758.814699
 11
598.336519
 21
705.010127
  0
LINE
  8
MountainLine
  6
CONTINUOUS
 62
5
 10
584.762564
 20
700.058420
 11
598.336519
 21
705.010127
  0
LINE
  8
ValleyLine
  6
CONTINUOUS
 62
1
 10
598.336519
 20
705.010127
 11
583.598376
 21
761.668797
  0
LINE
  8
MountainLine
  6
CONTINUOUS
 62
5
 10
583.598376
 20
761.668797
 11
570.374730
 21
754.402114
  0
LINE
  8
MountainLine
  6
CONTINUOUS
 62
5
 10
596.368001
 20
758.814699
 11
583.598376
 21
761.668797
  0
LINE
  8
ValleyLine
  6
CONTINUOUS
 62
1
 10
258.641721
 20
989.326551
 11
279.194375
 21
923.133835
  0
LINE
  8
MountainLine
  6
CONTINUOUS
 62
5
 10
279.194375
 20
923.133835
 11
273.730087
 21
989.402169
  0
LINE
  8
CutLine
  6
CONTINUOUS
 62
8
 10
273.730087
 20
989.402169
 11
258.641721
 21
989.326551
  0
LINE
  8
MountainLine
  6
CONTINUOUS
 62
5
 10
258.641721
 20
989.326551
 11
264.685073
 21
922.690177
  0
LINE
  8
MountainLine
  6
CONTINUOUS
 62
5
 10
264.685073
 20
922.690177
 11
279.194375
 21
923.133835
  0
LINE
  8
MountainLine
  6
CONTINUOUS
 62
5
 10
279.194375
 20
923.133835
 11
289.599542
 21
924.027034
  0
LINE
  8
ValleyLine
  6
CONTINUOUS
 62
1
 10
289.599542
 20
924.027034
 11
283.805365
 21
994.644233
  0
LINE
  8
MountainLine
  6
CONTINUOUS
 62
5
 10
283.805365
 20
994.644233
 11
279.194375
 21
923.133835
  0
LINE
  8
CutLine
  6
CONTINUOUS
 62
8
 10
283.805365
 20
994.644233
 11
273.730087
 21
989.402169
  0
LINE
  8
ValleyLine
  6
CONTINUOUS
 62
1
 10
252.407789
 20
973.470278
 11
255.379717
 21
923.475036
  0
LINE
  8
MountainLine
  6
CONTINUOUS
 62
5
 10
255.379717
 20
923.475036
 11
264.685073
 21
922.690177
  0
LINE
  8
MountainLine
  6
CONTINUOUS
 62
5
 10
264.685073
 20
922.690177
 11
252.407789
 21
973.470278
  0
LINE
  8
MountainLine
  6
CONTINUOUS
 62
5
 10
258.641721
 20
989.326551
 11
252.407789
 21
973.470278
  0
LINE
  8
MountainLine
  6
CONTINUOUS
 62
5
 10
135.146528
 20
1113.580993
 11
137.846410
 21
1157.545548
  0
LINE
  8
MountainLine
  6
CONTINUOUS
 62
5
 10
137.846410
 20
1157.545548
 11
105.465266
 21
1138.053241
  0
LINE
  8
MountainLine
  6
CONTINUOUS
 62
5
 10
105.465266
 20
1138.053241
 11
135.146528
 21
1113.580993
  0
LINE
  8
MountainLine
  6
CONTINUOUS
 62
5
 10
158.063481
 20
1129.024645
 11
137.846410
 21
1157.545548
  0
LINE
  8
MountainLine
  6
CONTINUOUS
 62
5
 10
182.848225
 20
1091.984483
 11
158.063481
 21
1129.024645
  0
LINE
  8
ValleyLine
  6
CONTINUOUS
 62
1
 10
135.146528
 20
1113.580993
 11
161.910060
 21
1080.698234
  0
LINE
  8
MountainLine
  6
CONTINUOUS
 62
5
 10
161.910060
 20
1080.698234
 11
182.848225
 21
1091.984483
  0
LINE
  8
MountainLine
  6
CONTINUOUS
 62
5
 10
360.127237
 20
837.804853
 11
362.029478
 21
823.788663
  0
LINE
  8
MountainLine
  6
CONTINUOUS
 62
5
 10
362.029478
 20
823.788663
 11
415.853913
 21
828.976534
  0
LINE
  8
CutLine
  6
CONTINUOUS
 62
8
 10
417.049518
 20
843.375915
 11
415.549332
 21
853.767583
  0
LINE
  8
MountainLine
  6
CONTINUOUS
 62
5
 10
415.549332
 20
853.767583
 11
360.127237
 21
837.804853
  0
LINE
  8
CutLine
  6
CONTINUOUS
 62
8
 10
421.283124
 20
822.111556
 11
415.853913
 21
828.976534
  0
LINE
  8
MountainLine
  6
CONTINUOUS
 62
5
 10
362.029478
 20
823.788663
 11
421.283124
 21
822.111556
  0
LINE
  8
CutLine
  6
CONTINUOUS
 62
8
 10
362.029478
 20
823.788663
 11
365.390986
 21
815.003665
  0
LINE
  8
ValleyLine
  6
CONTINUOUS
 62
1
 10
365.390986
 20
815.003665
 11
421.283124
 21
822.111556
  0
LINE
  8
ValleyLine
  6
CONTINUOUS
 62
1
 10
415.549332
 20
853.767583
 11
360.672073
 21
849.735610
  0
LINE
  8
MountainLine
  6
CONTINUOUS
 62
5
 10
360.672073
 20
849.735610
 11
360.127237
 21
837.804853
  0
LINE
  8
MountainLine
  6
CONTINUOUS
 62
5
 10
313.820831
 20
1045.610190
 11
319.395392
 21
1035.047800
  0
LINE
  8
ValleyLine
  6
CONTINUOUS
 62
1
 10
319.395392
 20
1035.047800
 11
370.763366
 21
1054.773474
  0
LINE
  8
MountainLine
  6
CONTINUOUS
 62
5
 10
370.763366
 20
1054.773474
 11
313.820831
 21
1045.610190
  0
LINE
  8
CutLine
  6
CONTINUOUS
 62
8
 10
370.763366
 20
1054.773474
 11
367.694594
 21
1064.814389
  0
LINE
  8
MountainLine
  6
CONTINUOUS
 62
5
 10
360.479795
 20
1077.333108
 11
309.572044
 21
1059.101665
  0
LINE
  8
MountainLine
  6
CONTINUOUS
 62
5
 10
309.572044
 20
1059.101665
 11
313.820831
 21
1045.610190
  0
LINE
  8
CutLine
  6
CONTINUOUS
 62
8
 10
367.694594
 20
1064.814389
 11
360.479795
 21
1077.333108
  0
LINE
  8
ValleyLine
  6
CONTINUOUS
 62
1
 10
362.467947
 20
1085.856686
 11
308.871640
 21
1068.481717
  0
LINE
  8
CutLine
  6
CONTINUOUS
 62
8
 10
308.871640
 20
1068.481717
 11
309.572044
 21
1059.101665
  0
LINE
  8
MountainLine
  6
CONTINUOUS
 62
5
 10
309.572044
 20
1059.101665
 11
362.467947
 21
1085.856686
  0
LINE
  8
CutLine
  6
CONTINUOUS
 62
8
 10
360.479795
 20
1077.333108
 11
362.467947
 21
1085.856686
  0
LINE
  8
MountainLine
  6
CONTINUOUS
 62
5
 10
300.388822
 20
1083.781037
 11
308.871640
 21
1068.481717
  0
LINE
  8
ValleyLine
  6
CONTINUOUS
 62
1
 10
362.467947
 20
1085.856686
 11
354.136435
 21
1097.390752
  0
LINE
  8
MountainLine
  6
CONTINUOUS
 62
5
 10
354.136435
 20
1097.390752
 11
300.388822
 21
1083.781037
  0
LINE
  8
MountainLine
  6
CONTINUOUS
 62
5
 10
362.467947
 20
1085.856686
 11
370.095336
 21
1104.583159
  0
LINE
  8
MountainLine
  6
CONTINUOUS
 62
5
 10
370.095336
 20
1104.583159
 11
354.136435
 21
1097.390752
  0
LINE
  8
CutLine
  6
CONTINUOUS
 62
8
 10
89.984949
 20
1214.927243
 11
108.782982
 21
1181.363837
  0
LINE
  8
MountainLine
  6
CONTINUOUS
 62
5
 10
108.782982
 20
1181.363837
 11
229.951779
 21
1255.740574
  0
LINE
  8
ValleyLine
  6
CONTINUOUS
 62
1
 10
229.951779
 20
1255.740574
 11
89.984949
 21
1214.927243
  0
LINE
  8
CutLine
  6
CONTINUOUS
 62
8
 10
186.916983
 20
1274.162815
 11
89.984949
 21
1214.927243
  0
LINE
  8
CutLine
  6
CONTINUOUS
 62
8
 10
215.952336
 20
1279.774604
 11
186.916983
 21
1274.162815
  0
LINE
  8
MountainLine
  6
CONTINUOUS
 62
5
 10
373.721291
 20
611.903834
 11
377.369426
 21
642.203896
  0
LINE
  8
MountainLine
  6
CONTINUOUS
 62
5
 10
377.369426
 20
642.203896
 11
249.347904
 21
661.451554
  0
LINE
  8
CutLine
  6
CONTINUOUS
 62
8
 10
249.347904
 20
661.451554
 11
232.421701
 21
627.658185
  0
LINE
  8
MountainLine
  6
CONTINUOUS
 62
5
 10
232.421701
 20
627.658185
 11
373.721291
 21
611.903834
  0
LINE
  8
CutLine
  6
CONTINUOUS
 62
8
 10
72.410535
 20
1029.444637
 11
74.582828
 21
982.712021
  0
LINE
  8
MountainLine
  6
CONTINUOUS
 62
5
 10
74.582828
 20
982.712021
 11
137.266605
 21
982.692474
  0
LINE
  8
ValleyLine
  6
CONTINUOUS
 62
1
 10
137.266605
 20
982.692474
 11
72.410535
 21
1029.444637
  0
LINE
  8
MountainLine
  6
CONTINUOUS
 62
5
 10
137.266605
 20
982.692474
 11
96.725426
 21
1029.218568
  0
LINE
  8
MountainLine
  6
CONTINUOUS
 62
5
 10
96.725426
 20
1029.218568
 11
72.410535
 21
1029.444637
  0
LINE
  8
CutLine
  6
CONTINUOUS
 62
8
 10
182.848225
 20
1091.984483
 11
229.540251
 21
1057.971203
  0
LINE
  8
MountainLine
  6
CONTINUOUS
 62
5
 10
229.540251
 20
1057.971203
 11
280.016651
 21
1091.984483
  0
LINE
  8
MountainLine
  6
CONTINUOUS
 62
5
 10
280.016651
 20
1091.984483
 11
259.958385
 21
1143.875819
  0
LINE
  8
MountainLine
  6
CONTINUOUS
 62
5
 10
259.958385
 20
1143.875819
 11
182.848225
 21
1091.984483
  0
LINE
  8
MountainLine
  6
CONTINUOUS
 62
5
 10
246.145171
 20
1229.872126
 11
138.478953
 21
1157.983549
  0
LINE
  8
MountainLine
  6
CONTINUOUS
 62
5
 10
233.803405
 20
1177.494981
 11
261.120166
 21
1207.016430
  0
LINE
  8
CutLine
  6
CONTINUOUS
 62
8
 10
261.120166
 20
1207.016430
 11
246.145171
 21
1229.872126
  0
LINE
  8
CutLine
  6
CONTINUOUS
 62
8
 10
138.478953
 20
1157.983549
 11
158.063481
 21
1129.024645
  0
LINE
  8
CutLine
  6
CONTINUOUS
 62
8
 10
259.958385
 20
1143.875819
 11
233.803405
 21
1177.494981
  0
LINE
  8
ValleyLine
  6
CONTINUOUS
 62
1
 10
236.314460
 20
1043.879349
 11
300.388822
 21
1083.781037
  0
LINE
  8
CutLine
  6
CONTINUOUS
 62
8
 10
300.388822
 20
1083.781037
 11
280.016651
 21
1091.984483
  0
LINE
  8
CutLine
  6
CONTINUOUS
 62
8
 10
229.540251
 20
1057.971203
 11
236.314460
 21
1043.879349
  0
LINE
  8
MountainLine
  6
CONTINUOUS
 62
5
 10
236.314460
 20
1043.879349
 11
308.871640
 21
1068.481717
  0
LINE
  8
MountainLine
  6
CONTINUOUS
 62
5
 10
236.314460
 20
1043.879349
 11
275.829384
 21
1035.165924
  0
LINE
  8
CutLine
  6
CONTINUOUS
 62
8
 10
275.829384
 20
1035.165924
 11
308.871640
 21
1068.481717
  0
LINE
  8
CutLine
  6
CONTINUOUS
 62
8
 10
188.637699
 20
751.400068
 11
223.486094
 21
775.548604
  0
LINE
  8
MountainLine
  6
CONTINUOUS
 62
5
 10
223.486094
 20
775.548604
 11
193.431841
 21
812.924714
  0
LINE
  8
MountainLine
  6
CONTINUOUS
 62
5
 10
193.431841
 20
812.924714
 11
188.637699
 21
751.400068
  0
LINE
  8
MountainLine
  6
CONTINUOUS
 62
5
 10
137.266605
 20
982.692474
 11
139.099990
 21
1030.618152
  0
LINE
  8
CutLine
  6
CONTINUOUS
 62
8
 10
139.099990
 20
1030.618152
 11
96.725426
 21
1029.218568
  0
LINE
  8
MountainLine
  6
CONTINUOUS
 62
5
 10
220.114817
 20
997.247763
 11
252.407789
 21
973.470278
  0
LINE
  8
CutLine
  6
CONTINUOUS
 62
8
 10
252.407789
 20
973.470278
 11
275.829384
 21
1035.165924
  0
LINE
  8
ValleyLine
  6
CONTINUOUS
 62
1
 10
275.829384
 20
1035.165924
 11
220.114817
 21
997.247763
  0
LINE
  8
MountainLine
  6
CONTINUOUS
 62
5
 10
236.314460
 20
1043.879349
 11
220.114817
 21
997.247763
  0
LINE
  8
MountainLine
  6
CONTINUOUS
 62
5
 10
214.167044
 20
947.094572
 11
216.084154
 21
914.701393
  0
LINE
  8
MountainLine
  6
CONTINUOUS
 62
5
 10
216.084154
 20
914.701393
 11
255.379717
 21
923.475036
  0
LINE
  8
ValleyLine
  6
CONTINUOUS
 62
1
 10
255.379717
 20
923.475036
 11
220.114817
 21
997.247763
  0
LINE
  8
MountainLine
  6
CONTINUOUS
 62
5
 10
220.114817
 20
997.247763
 11
214.167044
 21
947.094572
  0
LINE
  8
MountainLine
  6
CONTINUOUS
 62
5
 10
216.084154
 20
914.701393
 11
228.127312
 21
884.569087
  0
LINE
  8
CutLine
  6
CONTINUOUS
 62
8
 10
273.837059
 20
876.916648
 11
255.379717
 21
923.475036
  0
LINE
  8
MountainLine
  6
CONTINUOUS
 62
5
 10
228.127312
 20
884.569087
 11
254.747161
 21
841.649379
  0
LINE
  8
MountainLine
  6
CONTINUOUS
 62
5
 10
254.747161
 20
841.649379
 11
273.837059
 21
876.916648
  0
LINE
  8
MountainLine
  6
CONTINUOUS
 62
5
 10
254.747161
 20
841.649379
 11
289.265503
 21
806.358906
  0
LINE
  8
MountainLine
  6
CONTINUOUS
 62
5
 10
289.265503
 20
806.358906
 11
321.305687
 21
831.072861
  0
LINE
  8
ValleyLine
  6
CONTINUOUS
 62
1
 10
321.305687
 20
831.072861
 11
254.747161
 21
841.649379
  0
LINE
  8
CutLine
  6
CONTINUOUS
 62
8
 10
321.305687
 20
831.072861
 11
273.837059
 21
876.916648
  0
LINE
  8
MountainLine
  6
CONTINUOUS
 62
5
 10
283.190296
 20
789.394752
 11
287.249777
 21
804.494118
  0
LINE
  8
ValleyLine
  6
CONTINUOUS
 62
1
 10
287.249777
 20
804.494118
 11
223.486094
 21
775.548604
  0
LINE
  8
ValleyLine
  6
CONTINUOUS
 62
1
 10
223.486094
 20
775.548604
 11
283.190296
 21
789.394752
  0
LINE
  8
CutLine
  6
CONTINUOUS
 62
8
 10
223.486094
 20
775.548604
 11
236.372181
 21
755.555232
  0
LINE
  8
MountainLine
  6
CONTINUOUS
 62
5
 10
236.372181
 20
755.555232
 11
283.190296
 21
789.394752
  0
LINE
  8
ValleyLine
  6
CONTINUOUS
 62
1
 10
156.976989
 20
895.038757
 11
207.844680
 21
945.876338
  0
LINE
  8
MountainLine
  6
CONTINUOUS
 62
5
 10
207.844680
 20
945.876338
 11
147.012822
 21
926.920117
  0
LINE
  8
CutLine
  6
CONTINUOUS
 62
8
 10
147.012822
 20
926.920117
 11
156.976989
 21
895.038757
  0
LINE
  8
MountainLine
  6
CONTINUOUS
 62
5
 10
156.976989
 20
895.038757
 11
214.909263
 21
914.204821
  0
LINE
  8
CutLine
  6
CONTINUOUS
 62
8
 10
214.909263
 20
914.204821
 11
207.844680
 21
945.876338
  0
LINE
  8
MountainLine
  6
CONTINUOUS
 62
5
 10
137.266605
 20
982.692474
 11
203.615121
 21
996.203562
  0
LINE
  8
CutLine
  6
CONTINUOUS
 62
8
 10
203.615121
 20
996.203562
 11
207.545494
 21
1045.412152
  0
LINE
  8
MountainLine
  6
CONTINUOUS
 62
5
 10
207.545494
 20
1045.412152
 11
137.266605
 21
982.692474
  0
LINE
  8
ValleyLine
  6
CONTINUOUS
 62
1
 10
207.545494
 20
1045.412152
 11
139.099990
 21
1030.618152
  0
LINE
  8
CutLine
  6
CONTINUOUS
 62
8
 10
207.844680
 20
945.876338
 11
203.615121
 21
996.203562
  0
LINE
  8
CutLine
  6
CONTINUOUS
 62
8
 10
137.266605
 20
982.692474
 11
147.012822
 21
926.920117
  0
LINE
  8
CutLine
  6
CONTINUOUS
 62
8
 10
156.976989
 20
895.038757
 11
167.992715
 21
863.505290
  0
LINE
  8
MountainLine
  6
CONTINUOUS
 62
5
 10
167.992715
 20
863.505290
 11
228.127312
 21
884.569087
  0
LINE
  8
ValleyLine
  6
CONTINUOUS
 62
1
 10
228.127312
 20
884.569087
 11
156.976989
 21
895.038757
  0
LINE
  8
CutLine
  6
CONTINUOUS
 62
8
 10
228.127312
 20
884.569087
 11
214.909263
 21
914.204821
  0
LINE
  8
MountainLine
  6
CONTINUOUS
 62
5
 10
287.249777
 20
804.494118
 11
193.431841
 21
812.924714
  0
LINE
  8
CutLine
  6
CONTINUOUS
 62
8
 10
287.249777
 20
804.494118
 11
254.747161
 21
841.649379
  0
LINE
  8
MountainLine
  6
CONTINUOUS
 62
5
 10
254.747161
 20
841.649379
 11
193.431841
 21
812.924714
  0
LINE
  8
CutLine
  6
CONTINUOUS
 62
8
 10
167.992715
 20
863.505290
 11
193.431841
 21
812.924714
  0
LINE
  8
MountainLine
  6
CONTINUOUS
 62
5
 10
195.281802
 20
1055.111231
 11
137.519602
 21
1054.351852
  0
LINE
  8
CutLine
  6
CONTINUOUS
 62
8
 10
137.519602
 20
1054.351852
 11
139.099990
 21
1030.618152
  0
LINE
  8
ValleyLine
  6
CONTINUOUS
 62
1
 10
139.099990
 20
1030.618152
 11
195.281802
 21
1055.111231
  0
LINE
  8
MountainLine
  6
CONTINUOUS
 62
5
 10
207.545494
 20
1045.412152
 11
195.281802
 21
1055.111231
  0
LINE
  8
ValleyLine
  6
CONTINUOUS
 62
1
 10
289.265503
 20
806.358906
 11
364.232457
 21
797.548431
  0
LINE
  8
MountainLine
  6
CONTINUOUS
 62
5
 10
364.232457
 20
797.548431
 11
365.390986
 21
815.003665
  0
LINE
  8
MountainLine
  6
CONTINUOUS
 62
5
 10
365.390986
 20
815.003665
 11
289.265503
 21
806.358906
  0
LINE
  8
CutLine
  6
CONTINUOUS
 62
8
 10
349.294625
 20
781.449265
 11
364.232457
 21
797.548431
  0
LINE
  8
CutLine
  6
CONTINUOUS
 62
8
 10
289.265503
 20
806.358906
 11
289.138566
 21
790.723877
  0
LINE
  8
MountainLine
  6
CONTINUOUS
 62
5
 10
289.138566
 20
790.723877
 11
349.294625
 21
781.449265
  0
LINE
  8
CutLine
  6
CONTINUOUS
 62
8
 10
365.390986
 20
815.003665
 11
321.305687
 21
831.072861
  0
LINE
  8
CutLine
  6
CONTINUOUS
 62
8
 10
377.369426
 20
642.203896
 11
381.167987
 21
669.263168
  0
LINE
  8
MountainLine
  6
CONTINUOUS
 62
5
 10
381.167987
 20
669.263168
 11
249.347904
 21
661.451554
  0
LINE
  8
MountainLine
  6
CONTINUOUS
 62
5
 10
343.903909
 20
684.399538
 11
353.248584
 21
725.956825
  0
LINE
  8
MountainLine
  6
CONTINUOUS
 62
5
 10
353.248584
 20
725.956825
 11
261.380685
 21
740.062757
  0
LINE
  8
MountainLine
  6
CONTINUOUS
 62
5
 10
261.380685
 20
740.062757
 11
254.732833
 21
695.993911
  0
LINE
  8
CutLine
  6
CONTINUOUS
 62
8
 10
254.732833
 20
695.993911
 11
249.347904
 21
661.451554
  0
LINE
  8
CutLine
  6
CONTINUOUS
 62
8
 10
381.167987
 20
669.263168
 11
343.903909
 21
684.399538
  0
LINE
  8
CutLine
  6
CONTINUOUS
 62
8
 10
289.138566
 20
790.723877
 11
261.380685
 21
740.062757
  0
LINE
  8
CutLine
  6
CONTINUOUS
 62
8
 10
353.248584
 20
725.956825
 11
349.294625
 21
781.449265
  0
LINE
  8
MountainLine
  6
CONTINUOUS
 62
5
 10
518.452527
 20
1201.517116
 11
469.325828
 21
1176.639729
  0
LINE
  8
MountainLine
  6
CONTINUOUS
 62
5
 10
469.325828
 20
1176.639729
 11
482.992959
 21
1160.306685
  0
LINE
  8
CutLine
  6
CONTINUOUS
 62
8
 10
482.992959
 20
1160.306685
 11
518.452527
 21
1201.517116
  0
LINE
  8
CutLine
  6
CONTINUOUS
 62
8
 10
415.110412
 20
1135.745820
 11
467.458743
 21
1150.420052
  0
LINE
  8
CutLine
  6
CONTINUOUS
 62
8
 10
467.458743
 20
1150.420052
 11
458.449198
 21
1169.717381
  0
LINE
  8
MountainLine
  6
CONTINUOUS
 62
5
 10
458.449198
 20
1169.717381
 11
415.110412
 21
1135.745820
  0
LINE
  8
MountainLine
  6
CONTINUOUS
 62
5
 10
305.840195
 20
1226.730354
 11
265.191981
 21
1211.651351
  0
LINE
  8
MountainLine
  6
CONTINUOUS
 62
5
 10
265.191981
 20
1211.651351
 11
268.643201
 21
1191.924119
  0
LINE
  8
MountainLine
  6
CONTINUOUS
 62
5
 10
268.643201
 20
1191.924119
 11
305.840195
 21
1226.730354
  0
LINE
  8
MountainLine
  6
CONTINUOUS
 62
5
 10
286.157234
 20
1147.492408
 11
353.466558
 21
1105.485693
  0
LINE
  8
ValleyLine
  6
CONTINUOUS
 62
1
 10
353.466558
 20
1105.485693
 11
329.232586
 21
1165.629987
  0
LINE
  8
MountainLine
  6
CONTINUOUS
 62
5
 10
329.232586
 20
1165.629987
 11
286.157234
 21
1147.492408
  0
LINE
  8
MountainLine
  6
CONTINUOUS
 62
5
 10
329.232586
 20
1165.629987
 11
305.840195
 21
1226.730354
  0
LINE
  8
CutLine
  6
CONTINUOUS
 62
8
 10
268.643201
 20
1191.924119
 11
286.157234
 21
1147.492408
  0
LINE
  8
ValleyLine
  6
CONTINUOUS
 62
1
 10
286.157234
 20
1147.492408
 11
301.320516
 21
1086.649013
  0
LINE
  8
CutLine
  6
CONTINUOUS
 62
8
 10
301.320516
 20
1086.649013
 11
353.466558
 21
1105.485693
  0
LINE
  8
CutLine
  6
CONTINUOUS
 62
8
 10
353.466558
 20
1105.485693
 11
369.819503
 21
1111.730566
  0
LINE
  8
ValleyLine
  6
CONTINUOUS
 62
1
 10
369.819503
 20
1111.730566
 11
329.232586
 21
1165.629987
  0
LINE
  8
CutLine
  6
CONTINUOUS
 62
8
 10
286.157234
 20
1147.492408
 11
259.958385
 21
1143.875819
  0
LINE
  8
MountainLine
  6
CONTINUOUS
 62
5
 10
259.958385
 20
1143.875819
 11
301.320516
 21
1086.649013
  0
LINE
  8
MountainLine
  6
CONTINUOUS
 62
5
 10
280.016651
 20
1091.984483
 11
301.320516
 21
1086.649013
  0
LINE
  8
MountainLine
  6
CONTINUOUS
 62
5
 10
611.118960
 20
1283.878978
 11
615.289200
 21
1305.441239
  0
LINE
  8
MountainLine
  6
CONTINUOUS
 62
5
 10
615.289200
 20
1305.441239
 11
576.741160
 21
1345.554743
  0
LINE
  8
MountainLine
  6
CONTINUOUS
 62
5
 10
576.741160
 20
1345.554743
 11
611.118960
 21
1283.878978
  0
LINE
  8
CutLine
  6
CONTINUOUS
 62
8
 10
576.741160
 20
1345.554743
 11
562.388815
 21
1323.340563
  0
LINE
  8
ValleyLine
  6
CONTINUOUS
 62
1
 10
562.388815
 20
1323.340563
 11
611.118960
 21
1283.878978
  0
LINE
  8
MountainLine
  6
CONTINUOUS
 62
5
 10
562.388815
 20
1323.340563
 11
527.742648
 21
1291.970193
  0
LINE
  8
ValleyLine
  6
CONTINUOUS
 62
1
 10
527.742648
 20
1291.970193
 11
572.004864
 21
1244.583721
  0
LINE
  8
MountainLine
  6
CONTINUOUS
 62
5
 10
572.004864
 20
1244.583721
 11
562.388815
 21
1323.340563
  0
LINE
  8
MountainLine
  6
CONTINUOUS
 62
5
 10
482.294989
 20
1339.033653
 11
527.742648
 21
1291.970193
  0
LINE
  8
CutLine
  6
CONTINUOUS
 62
8
 10
562.388815
 20
1323.340563
 11
529.562613
 21
1358.030025
  0
LINE
  8
MountainLine
  6
CONTINUOUS
 62
5
 10
529.562613
 20
1358.030025
 11
482.294989
 21
1339.033653
  0
LINE
  8
CutLine
  6
CONTINUOUS
 62
8
 10
572.004864
 20
1244.583721
 11
611.118960
 21
1283.878978
  0
LINE
  8
MountainLine
  6
CONTINUOUS
 62
5
 10
529.562613
 20
1358.030025
 11
513.143625
 21
1369.496997
  0
LINE
  8
MountainLine
  6
CONTINUOUS
 62
5
 10
513.143625
 20
1369.496997
 11
482.294989
 21
1339.033653
  0
LINE
  8
ValleyLine
  6
CONTINUOUS
 62
1
 10
527.742648
 20
1291.970193
 11
559.432670
 21
1232.403526
  0
LINE
  8
CutLine
  6
CONTINUOUS
 62
8
 10
559.432670
 20
1232.403526
 11
572.004864
 21
1244.583721
  0
LINE
  8
MountainLine
  6
CONTINUOUS
 62
5
 10
337.575738
 20
1242.784005
 11
376.933850
 21
1189.780932
  0
LINE
  8
MountainLine
  6
CONTINUOUS
 62
5
 10
376.933850
 20
1189.780932
 11
434.352587
 21
1219.584841
  0
LINE
  8
MountainLine
  6
CONTINUOUS
 62
5
 10
434.352587
 20
1219.584841
 11
337.575738
 21
1242.784005
  0
LINE
  8
MountainLine
  6
CONTINUOUS
 62
5
 10
434.352587
 20
1219.584841
 11
398.383849
 21
1276.100155
  0
LINE
  8
MountainLine
  6
CONTINUOUS
 62
5
 10
398.383849
 20
1276.100155
 11
337.575738
 21
1242.784005
  0
LINE
  8
CutLine
  6
CONTINUOUS
 62
8
 10
337.575738
 20
1242.784005
 11
305.840195
 21
1226.730354
  0
LINE
  8
CutLine
  6
CONTINUOUS
 62
8
 10
329.232586
 20
1165.629987
 11
376.933850
 21
1189.780932
  0
LINE
  8
ValleyLine
  6
CONTINUOUS
 62
1
 10
376.933850
 20
1189.780932
 11
458.449198
 21
1169.717381
  0
LINE
  8
MountainLine
  6
CONTINUOUS
 62
5
 10
458.449198
 20
1169.717381
 11
434.352587
 21
1219.584841
  0
LINE
  8
CutLine
  6
CONTINUOUS
 62
8
 10
376.933850
 20
1189.780932
 11
415.110412
 21
1135.745820
  0
LINE
  8
MountainLine
  6
CONTINUOUS
 62
5
 10
454.313799
 20
1317.081050
 11
398.383849
 21
1276.100155
  0
LINE
  8
MountainLine
  6
CONTINUOUS
 62
5
 10
434.352587
 20
1219.584841
 11
454.313799
 21
1317.081050
  0
LINE
  8
MountainLine
  6
CONTINUOUS
 62
5
 10
434.352587
 20
1219.584841
 11
485.665535
 21
1258.982380
  0
LINE
  8
MountainLine
  6
CONTINUOUS
 62
5
 10
485.665535
 20
1258.982380
 11
454.313799
 21
1317.081050
  0
LINE
  8
CutLine
  6
CONTINUOUS
 62
8
 10
482.294989
 20
1339.033653
 11
454.313799
 21
1317.081050
  0
LINE
  8
CutLine
  6
CONTINUOUS
 62
8
 10
485.665535
 20
1258.982380
 11
527.742648
 21
1291.970193
  0
LINE
  8
ValleyLine
  6
CONTINUOUS
 62
1
 10
485.665535
 20
1258.982380
 11
469.325828
 21
1176.639729
  0
LINE
  8
CutLine
  6
CONTINUOUS
 62
8
 10
518.452527
 20
1201.517116
 11
485.665535
 21
1258.982380
  0
LINE
  8
CutLine
  6
CONTINUOUS
 62
8
 10
434.352587
 20
1219.584841
 11
469.325828
 21
1176.639729
  0
LINE
  8
MountainLine
  6
CONTINUOUS
 62
5
 10
454.313799
 20
1317.081050
 11
479.299342
 21
1342.390859
  0
LINE
  8
CutLine
  6
CONTINUOUS
 62
8
 10
479.299342
 20
1342.390859
 11
453.565277
 21
1358.402419
  0
LINE
  8
MountainLine
  6
CONTINUOUS
 62
5
 10
424.943942
 20
1329.582086
 11
386.538746
 21
1302.286883
  0
LINE
  8
CutLine
  6
CONTINUOUS
 62
8
 10
386.538746
 20
1302.286883
 11
398.383849
 21
1276.100155
  0
LINE
  8
CutLine
  6
CONTINUOUS
 62
8
 10
453.565277
 20
1358.402419
 11
424.943942
 21
1329.582086
  0
LINE
  8
MountainLine
  6
CONTINUOUS
 62
5
 10
424.943942
 20
1329.582086
 11
454.313799
 21
1317.081050
  0
LINE
  8
MountainLine
  6
CONTINUOUS
 62
5
 10
338.686691
 20
1274.684324
 11
337.575738
 21
1242.784005
  0
LINE
  8
CutLine
  6
CONTINUOUS
 62
8
 10
338.686691
 20
1274.684324
 11
300.458419
 21
1260.958738
  0
LINE
  8
MountainLine
  6
CONTINUOUS
 62
5
 10
398.383849
 20
1276.100155
 11
379.676060
 21
1297.919179
  0
LINE
  8
CutLine
  6
CONTINUOUS
 62
8
 10
379.676060
 20
1297.919179
 11
338.686691
 21
1274.684324
  0
LINE
  8
CutLine
  6
CONTINUOUS
 62
8
 10
300.458419
 20
1260.958738
 11
304.067243
 21
1230.865736
  0
LINE
  8
MountainLine
  6
CONTINUOUS
 62
5
 10
304.067243
 20
1230.865736
 11
337.575738
 21
1242.784005
  0
LINE
  8
MountainLine
  6
CONTINUOUS
 62
5
 10
193.431841
 20
812.924714
 11
143.127771
 21
775.524757
  0
LINE
  8
CutLine
  6
CONTINUOUS
 62
8
 10
143.127771
 20
775.524757
 11
169.255167
 21
736.717347
  0
LINE
  8
ValleyLine
  6
CONTINUOUS
 62
1
 10
169.255167
 20
736.717347
 11
193.431841
 21
812.924714
  0
LINE
  8
MountainLine
  6
CONTINUOUS
 62
5
 10
169.255167
 20
736.717347
 11
188.637699
 21
751.400068
  0
LINE
  8
ValleyLine
  6
CONTINUOUS
 62
1
 10
68.792626
 20
930.339810
 11
130.859817
 21
926.438606
  0
LINE
  8
MountainLine
  6
CONTINUOUS
 62
5
 10
130.859817
 20
926.438606
 11
137.266605
 21
982.692474
  0
LINE
  8
MountainLine
  6
CONTINUOUS
 62
5
 10
74.582828
 20
982.712021
 11
68.792626
 21
930.339810
  0
LINE
  8
CutLine
  6
CONTINUOUS
 62
8
 10
57.645586
 20
903.502847
 11
36.785104
 21
914.043504
  0
LINE
  8
MountainLine
  6
CONTINUOUS
 62
5
 10
36.785104
 20
914.043504
 11
9.828626
 21
869.768951
  0
LINE
  8
ValleyLine
  6
CONTINUOUS
 62
1
 10
9.828626
 20
869.768951
 11
57.645586
 21
903.502847
  0
LINE
  8
MountainLine
  6
CONTINUOUS
 62
5
 10
43.778875
 20
877.964771
 11
113.691945
 21
844.618049
  0
LINE
  8
MountainLine
  6
CONTINUOUS
 62
5
 10
113.691945
 20
844.618049
 11
126.439978
 21
870.647404
  0
LINE
  8
MountainLine
  6
CONTINUOUS
 62
5
 10
126.439978
 20
870.647404
 11
138.672260
 21
896.923077
  0
LINE
  8
MountainLine
  6
CONTINUOUS
 62
5
 10
138.672260
 20
896.923077
 11
68.792626
 21
930.339810
  0
LINE
  8
MountainLine
  6
CONTINUOUS
 62
5
 10
9.828626
 20
869.768951
 11
43.778875
 21
877.964771
  0
LINE
  8
ValleyLine
  6
CONTINUOUS
 62
1
 10
43.778875
 20
877.964771
 11
57.645586
 21
903.502847
  0
LINE
  8
MountainLine
  6
CONTINUOUS
 62
5
 10
68.792626
 20
930.339810
 11
57.645586
 21
903.502847
  0
LINE
  8
ValleyLine
  6
CONTINUOUS
 62
1
 10
74.582828
 20
982.712021
 11
57.645586
 21
903.502847
  0
LINE
  8
MountainLine
  6
CONTINUOUS
 62
5
 10
9.828626
 20
869.768951
 11
10.794632
 21
836.874443
  0
LINE
  8
MountainLine
  6
CONTINUOUS
 62
5
 10
10.794632
 20
836.874443
 11
43.778875
 21
877.964771
  0
LINE
  8
MountainLine
  6
CONTINUOUS
 62
5
 10
55.083202
 20
792.514792
 11
90.379734
 21
836.783275
  0
LINE
  8
ValleyLine
  6
CONTINUOUS
 62
1
 10
90.379734
 20
836.783275
 11
43.778875
 21
877.964771
  0
LINE
  8
CutLine
  6
CONTINUOUS
 62
8
 10
10.794632
 20
836.874443
 11
55.083202
 21
792.514792
  0
LINE
  8
CutLine
  6
CONTINUOUS
 62
8
 10
108.782982
 20
1181.363837
 11
138.478953
 21
1157.983549
  0
LINE
  8
CutLine
  6
CONTINUOUS
 62
8
 10
246.145171
 20
1229.872126
 11
229.951779
 21
1255.740574
  0
LINE
  8
MountainLine
  6
CONTINUOUS
 62
5
 10
513.143625
 20
1369.496997
 11
492.373034
 21
1389.554162
  0
LINE
  8
CutLine
  6
CONTINUOUS
 62
8
 10
492.373034
 20
1389.554162
 11
468.589274
 21
1366.066328
  0
LINE
  8
MountainLine
  6
CONTINUOUS
 62
5
 10
468.589274
 20
1366.066328
 11
482.294989
 21
1339.033653
  0
LINE
  8
MountainLine
  6
CONTINUOUS
 62
5
 10
424.793043
 20
1575.523037
 11
399.027032
 21
1595.994835
  0
LINE
  8
MountainLine
  6
CONTINUOUS
 62
5
 10
399.027032
 20
1595.994835
 11
358.476537
 21
1572.664306
  0
LINE
  8
MountainLine
  6
CONTINUOUS
 62
5
 10
358.476537
 20
1572.664306
 11
424.793043
 21
1575.523037
  0
LINE
  8
MountainLine
  6
CONTINUOUS
 62
5
 10
358.476537
 20
1572.664306
 11
369.712779
 21
1546.597249
  0
LINE
  8
MountainLine
  6
CONTINUOUS
 62
5
 10
369.712779
 20
1546.597249
 11
424.793043
 21
1575.523037
  0
LINE
  8
MountainLine
  6
CONTINUOUS
 62
5
 10
295.338975
 20
1485.427113
 11
356.198102
 21
1571.559182
  0
LINE
  8
CutLine
  6
CONTINUOUS
 62
8
 10
356.198102
 20
1571.559182
 11
341.007635
 21
1590.546408
  0
LINE
  8
ValleyLine
  6
CONTINUOUS
 62
1
 10
341.007635
 20
1590.546408
 11
278.244451
 21
1495.860322
  0
LINE
  8
CutLine
  6
CONTINUOUS
 62
8
 10
278.244451
 20
1495.860322
 11
295.338975
 21
1485.427113
  0
LINE
  8
MountainLine
  6
CONTINUOUS
 62
5
 10
323.576541
 20
1479.398235
 11
356.198102
 21
1571.559182
  0
LINE
  8
MountainLine
  6
CONTINUOUS
 62
5
 10
295.338975
 20
1485.427113
 11
323.576541
 21
1479.398235
  0
LINE
  8
MountainLine
  6
CONTINUOUS
 62
5
 10
323.576541
 20
1479.398235
 11
369.712779
 21
1546.597249
  0
LINE
  8
CutLine
  6
CONTINUOUS
 62
8
 10
369.712779
 20
1546.597249
 11
356.198102
 21
1571.559182
  0
LINE
  8
MountainLine
  6
CONTINUOUS
 62
5
 10
473.243467
 20
1557.099038
 11
424.793043
 21
1575.523037
  0
LINE
  8
CutLine
  6
CONTINUOUS
 62
8
 10
379.507351
 20
1380.992130
 11
425.285623
 21
1369.841482
  0
LINE
  8
CutLine
  6
CONTINUOUS
 62
8
 10
323.576541
 20
1479.398235
 11
321.436193
 21
1446.040110
  0
LINE
  8
MountainLine
  6
CONTINUOUS
 62
5
 10
321.436193
 20
1446.040110
 11
344.691580
 21
1412.738768
  0
LINE
  8
MountainLine
  6
CONTINUOUS
 62
5
 10
344.691580
 20
1412.738768
 11
379.507351
 21
1380.992130
  0
LINE
  8
MountainLine
  6
CONTINUOUS
 62
5
 10
425.285623
 20
1369.841482
 11
465.897351
 21
1369.148678
  0
LINE
  8
MountainLine
  6
CONTINUOUS
 62
5
 10
465.897351
 20
1369.148678
 11
492.373034
 21
1389.554162
  0
LINE
  8
MountainLine
  6
CONTINUOUS
 62
5
 10
522.351867
 20
1465.353430
 11
515.585109
 21
1527.197981
  0
LINE
  8
CutLine
  6
CONTINUOUS
 62
8
 10
515.585109
 20
1527.197981
 11
473.243467
 21
1557.099038
  0
LINE
  8
MountainLine
  6
CONTINUOUS
 62
5
 10
492.373034
 20
1389.554162
 11
522.351867
 21
1465.353430
  0
LINE
  8
MountainLine
  6
CONTINUOUS
 62
5
 10
513.143625
 20
1369.496997
 11
550.606002
 21
1468.082683
  0
LINE
  8
MountainLine
  6
CONTINUOUS
 62
5
 10
550.606002
 20
1468.082683
 11
492.373034
 21
1389.554162
  0
LINE
  8
CutLine
  6
CONTINUOUS
 62
8
 10
550.606002
 20
1468.082683
 11
522.351867
 21
1465.353430
  0
LINE
  8
CutLine
  6
CONTINUOUS
 62
8
 10
513.143625
 20
1369.496997
 11
531.344866
 21
1361.142989
  0
LINE
  8
CutLine
  6
CONTINUOUS
 62
8
 10
531.344866
 20
1361.142989
 11
574.839756
 21
1466.085182
  0
LINE
  8
CutLine
  6
CONTINUOUS
 62
8
 10
574.839756
 20
1466.085182
 11
550.606002
 21
1468.082683
  0
LINE
  8
MountainLine
  6
CONTINUOUS
 62
5
 10
515.585109
 20
1527.197981
 11
550.250182
 21
1470.590700
  0
LINE
  8
MountainLine
  6
CONTINUOUS
 62
5
 10
550.250182
 20
1470.590700
 11
546.956632
 21
1517.257695
  0
LINE
  8
CutLine
  6
CONTINUOUS
 62
8
 10
546.956632
 20
1517.257695
 11
515.585109
 21
1527.197981
  0
LINE
  8
MountainLine
  6
CONTINUOUS
 62
5
 10
522.351867
 20
1465.353430
 11
550.250182
 21
1470.590700
  0
LINE
  8
CutLine
  6
CONTINUOUS
 62
8
 10
295.338975
 20
1485.427113
 11
287.296189
 21
1442.824681
  0
LINE
  8
MountainLine
  6
CONTINUOUS
 62
5
 10
287.296189
 20
1442.824681
 11
317.374759
 21
1446.551874
  0
LINE
  8
MountainLine
  6
CONTINUOUS
 62
5
 10
317.374759
 20
1446.551874
 11
323.576541
 21
1479.398235
  0
LINE
  8
CutLine
  6
CONTINUOUS
 62
8
 10
371.276189
 20
584.197509
 11
373.721291
 21
611.903834
  0
LINE
  8
CutLine
  6
CONTINUOUS
 62
8
 10
232.421701
 20
627.658185
 11
229.690456
 21
589.286209
  0
LINE
  8
ValleyLine
  6
CONTINUOUS
 62
1
 10
229.690456
 20
589.286209
 11
342.613740
 21
576.916840
  0
LINE
  8
CutLine
  6
CONTINUOUS
 62
8
 10
342.613740
 20
576.916840
 11
371.276189
 21
584.197509
  0
LINE
  8
MountainLine
  6
CONTINUOUS
 62
5
 10
473.243467
 20
1557.099038
 11
483.249499
 21
1578.221170
  0
LINE
  8
MountainLine
  6
CONTINUOUS
 62
5
 10
483.249499
 20
1578.221170
 11
424.793043
 21
1575.523037
  0
LINE
  8
CutLine
  6
CONTINUOUS
 62
8
 10
483.249499
 20
1578.221170
 11
405.981980
 21
1602.525365
  0
LINE
  8
CutLine
  6
CONTINUOUS
 62
8
 10
405.981980
 20
1602.525365
 11
424.793043
 21
1575.523037
  0
LINE
  8
MountainLine
  6
CONTINUOUS
 62
5
 10
364.232457
 20
797.548431
 11
418.657773
 21
808.127403
  0
LINE
  8
ValleyLine
  6
CONTINUOUS
 62
1
 10
418.657773
 20
808.127403
 11
421.283124
 21
822.111556
  0
LINE
  8
MountainLine
  6
CONTINUOUS
 62
5
 10
418.657773
 20
808.127403
 11
436.160150
 21
808.417318
  0
LINE
  8
MountainLine
  6
CONTINUOUS
 62
5
 10
436.160150
 20
808.417318
 11
421.283124
 21
822.111556
  0
LINE
  8
MountainLine
  6
CONTINUOUS
 62
5
 10
379.629379
 20
724.082451
 11
343.903909
 21
684.399538
  0
LINE
  8
CutLine
  6
CONTINUOUS
 62
8
 10
343.903909
 20
684.399538
 11
371.931884
 21
676.947890
  0
LINE
  8
ValleyLine
  6
CONTINUOUS
 62
1
 10
371.931884
 20
676.947890
 11
379.629379
 21
724.082451
  0
LINE
  8
MountainLine
  6
CONTINUOUS
 62
5
 10
379.629379
 20
724.082451
 11
353.248584
 21
725.956825
  0
LINE
  8
MountainLine
  6
CONTINUOUS
 62
5
 10
227.420692
 20
700.205766
 11
210.989678
 21
665.422294
  0
LINE
  8
MountainLine
  6
CONTINUOUS
 62
5
 10
210.989678
 20
665.422294
 11
248.589050
 21
661.578423
  0
LINE
  8
MountainLine
  6
CONTINUOUS
 62
5
 10
248.589050
 20
661.578423
 11
227.420692
 21
700.205766
  0
LINE
  8
MountainLine
  6
CONTINUOUS
 62
5
 10
248.589050
 20
661.578423
 11
254.732833
 21
695.993911
  0
LINE
  8
MountainLine
  6
CONTINUOUS
 62
5
 10
261.380685
 20
740.062757
 11
237.629607
 21
741.355985
  0
LINE
  8
ValleyLine
  6
CONTINUOUS
 62
1
 10
237.629607
 20
741.355985
 11
227.420692
 21
700.205766
  0
LINE
  8
ValleyLine
  6
CONTINUOUS
 62
1
 10
444.764231
 20
641.311944
 11
401.204588
 21
616.180205
  0
LINE
  8
MountainLine
  6
CONTINUOUS
 62
5
 10
401.204588
 20
616.180205
 11
430.776016
 21
615.906741
  0
LINE
  8
ValleyLine
  6
CONTINUOUS
 62
1
 10
430.776016
 20
615.906741
 11
444.764231
 21
641.311944
  0
LINE
  8
MountainLine
  6
CONTINUOUS
 62
5
 10
444.764231
 20
641.311944
 11
404.634093
 21
644.012554
  0
LINE
  8
MountainLine
  6
CONTINUOUS
 62
5
 10
404.634093
 20
644.012554
 11
401.204588
 21
616.180205
  0
LINE
  8
MountainLine
  6
CONTINUOUS
 62
5
 10
404.634093
 20
644.012554
 11
377.369426
 21
642.203896
  0
LINE
  8
MountainLine
  6
CONTINUOUS
 62
5
 10
373.721291
 20
611.903834
 11
401.204588
 21
616.180205
  0
LINE
  8
ValleyLine
  6
CONTINUOUS
 62
1
 10
1432.232176
 20
389.891891
 11
1438.562976
 21
336.309933
  0
LINE
  8
MountainLine
  6
CONTINUOUS
 62
5
 10
1438.562976
 20
336.309933
 11
1445.619619
 21
331.132295
  0
LINE
  8
ValleyLine
  6
CONTINUOUS
 62
1
 10
1445.619619
 20
331.132295
 11
1432.232176
 21
389.891891
  0
LINE
  8
CutLine
  6
CONTINUOUS
 62
8
 10
1418.513918
 20
333.684459
 11
1438.562976
 21
336.309933
  0
LINE
  8
MountainLine
  6
CONTINUOUS
 62
5
 10
1432.232176
 20
389.891891
 11
1418.513918
 21
333.684459
  0
LINE
  8
ValleyLine
  6
CONTINUOUS
 62
1
 10
1432.232176
 20
389.891891
 11
1433.379209
 21
440.646289
  0
LINE
  8
MountainLine
  6
CONTINUOUS
 62
5
 10
1433.379209
 20
440.646289
 11
1417.783543
 21
388.565045
  0
LINE
  8
MountainLine
  6
CONTINUOUS
 62
5
 10
1417.783543
 20
388.565045
 11
1418.513918
 21
333.684459
  0
LINE
  8
ValleyLine
  6
CONTINUOUS
 62
1
 10
1310.281975
 20
380.725875
 11
1310.281977
 21
321.894551
  0
LINE
  8
CutLine
  6
CONTINUOUS
 62
8
 10
1310.281977
 20
321.894551
 11
1359.779821
 21
322.125323
  0
LINE
  8
MountainLine
  6
CONTINUOUS
 62
5
 10
1359.779821
 20
322.125323
 11
1359.779818
 21
380.956659
  0
LINE
  8
CutLine
  6
CONTINUOUS
 62
8
 10
1359.779818
 20
380.956659
 11
1310.281975
 21
380.725875
  0
LINE
  8
CutLine
  6
CONTINUOUS
 62
8
 10
1417.783543
 20
388.565045
 11
1359.779818
 21
380.956659
  0
LINE
  8
CutLine
  6
CONTINUOUS
 62
8
 10
1359.779821
 20
322.125323
 11
1418.513918
 21
333.684459
  0
LINE
  8
MountainLine
  6
CONTINUOUS
 62
5
 10
1282.018224
 20
389.911941
 11
1282.018224
 21
326.772725
  0
LINE
  8
CutLine
  6
CONTINUOUS
 62
8
 10
1282.018224
 20
326.772725
 11
1310.281977
 21
321.894551
  0
LINE
  8
CutLine
  6
CONTINUOUS
 62
8
 10
1310.281975
 20
380.725875
 11
1282.018224
 21
389.911941
  0
LINE
  8
MountainLine
  6
CONTINUOUS
 62
5
 10
1282.018224
 20
389.911941
 11
1252.110473
 21
393.552717
  0
LINE
  8
MountainLine
  6
CONTINUOUS
 62
5
 10
1252.110473
 20
393.552717
 11
1251.435209
 21
330.452235
  0
LINE
  8
MountainLine
  6
CONTINUOUS
 62
5
 10
1251.435209
 20
330.452235
 11
1282.018224
 21
326.772725
  0
LINE
  8
MountainLine
  6
CONTINUOUS
 62
5
 10
1174.786030
 20
385.541756
 11
1252.110473
 21
393.552717
  0
LINE
  8
CutLine
  6
CONTINUOUS
 62
8
 10
1252.110473
 20
393.552717
 11
1248.839605
 21
423.503180
  0
LINE
  8
MountainLine
  6
CONTINUOUS
 62
5
 10
1248.839605
 20
423.503180
 11
1172.288815
 21
417.156827
  0
LINE
  8
CutLine
  6
CONTINUOUS
 62
8
 10
1172.288815
 20
417.156827
 11
1174.786030
 21
385.541756
  0
LINE
  8
ValleyLine
  6
CONTINUOUS
 62
1
 10
1222.889602
 20
437.988372
 11
1172.288815
 21
417.156827
  0
LINE
  8
MountainLine
  6
CONTINUOUS
 62
5
 10
1248.839605
 20
423.503180
 11
1222.889602
 21
437.988372
  0
LINE
  8
MountainLine
  6
CONTINUOUS
 62
5
 10
1222.889602
 20
437.988372
 11
1203.112188
 21
483.363956
  0
LINE
  8
MountainLine
  6
CONTINUOUS
 62
5
 10
1174.478039
 20
429.636608
 11
1172.288815
 21
417.156827
  0
LINE
  8
ValleyLine
  6
CONTINUOUS
 62
1
 10
1203.112188
 20
483.363956
 11
1177.082868
 21
468.406028
  0
LINE
  8
MountainLine
  6
CONTINUOUS
 62
5
 10
1177.082868
 20
468.406028
 11
1174.478039
 21
429.636608
  0
LINE
  8
ValleyLine
  6
CONTINUOUS
 62
1
 10
1174.742665
 20
534.525365
 11
1177.082868
 21
468.406028
  0
LINE
  8
MountainLine
  6
CONTINUOUS
 62
5
 10
1203.112188
 20
483.363956
 11
1174.742665
 21
534.525365
  0
LINE
  8
MountainLine
  6
CONTINUOUS
 62
5
 10
1174.786030
 20
385.541756
 11
1173.296910
 21
325.942499
  0
LINE
  8
MountainLine
  6
CONTINUOUS
 62
5
 10
1173.296910
 20
325.942499
 11
1251.435209
 21
330.452235
  0
LINE
  8
MountainLine
  6
CONTINUOUS
 62
5
 10
1178.489507
 20
242.878225
 11
1219.112526
 21
233.734683
  0
LINE
  8
MountainLine
  6
CONTINUOUS
 62
5
 10
1219.112526
 20
233.734683
 11
1230.112350
 21
281.995368
  0
LINE
  8
ValleyLine
  6
CONTINUOUS
 62
1
 10
1230.112350
 20
281.995368
 11
1178.489507
 21
242.878225
  0
LINE
  8
CutLine
  6
CONTINUOUS
 62
8
 10
1178.489507
 20
242.878225
 11
1197.165071
 21
178.042520
  0
LINE
  8
MountainLine
  6
CONTINUOUS
 62
5
 10
1197.165071
 20
178.042520
 11
1219.112526
 21
233.734683
  0
LINE
  8
MountainLine
  6
CONTINUOUS
 62
5
 10
1230.112350
 20
281.995368
 11
1180.985956
 21
281.823430
  0
LINE
  8
MountainLine
  6
CONTINUOUS
 62
5
 10
1180.985956
 20
281.823430
 11
1178.489507
 21
242.878225
  0
LINE
  8
MountainLine
  6
CONTINUOUS
 62
5
 10
1230.112350
 20
281.995368
 11
1252.697372
 21
299.674540
  0
LINE
  8
ValleyLine
  6
CONTINUOUS
 62
1
 10
1252.697372
 20
299.674540
 11
1180.985956
 21
281.823430
  0
LINE
  8
MountainLine
  6
CONTINUOUS
 62
5
 10
1175.637189
 20
293.657378
 11
1252.697372
 21
299.674540
  0
LINE
  8
CutLine
  6
CONTINUOUS
 62
8
 10
1252.697372
 20
299.674540
 11
1251.435209
 21
330.452235
  0
LINE
  8
CutLine
  6
CONTINUOUS
 62
8
 10
1175.637189
 20
293.657378
 11
1180.985956
 21
281.823430
  0
LINE
  8
CutLine
  6
CONTINUOUS
 62
8
 10
1173.296910
 20
325.942499
 11
1175.637189
 21
293.657378
  0
LINE
  8
MountainLine
  6
CONTINUOUS
 62
5
 10
1143.259660
 20
382.101291
 11
1141.112851
 21
322.479513
  0
LINE
  8
MountainLine
  6
CONTINUOUS
 62
5
 10
1141.112851
 20
322.479513
 11
1173.296910
 21
325.942499
  0
LINE
  8
MountainLine
  6
CONTINUOUS
 62
5
 10
1174.786030
 20
385.541756
 11
1143.259660
 21
382.101291
  0
LINE
  8
CutLine
  6
CONTINUOUS
 62
8
 10
1143.259660
 20
382.101291
 11
1130.603413
 21
382.698819
  0
LINE
  8
ValleyLine
  6
CONTINUOUS
 62
1
 10
1091.781246
 20
384.339663
 11
1128.205990
 21
323.916374
  0
LINE
  8
ValleyLine
  6
CONTINUOUS
 62
1
 10
1128.205990
 20
323.916374
 11
1130.603413
 21
382.698819
  0
LINE
  8
CutLine
  6
CONTINUOUS
 62
8
 10
1130.603413
 20
382.698819
 11
1091.781246
 21
384.339663
  0
LINE
  8
MountainLine
  6
CONTINUOUS
 62
5
 10
1128.205990
 20
323.916374
 11
1141.112851
 21
322.479513
  0
LINE
  8
ValleyLine
  6
CONTINUOUS
 62
1
 10
1091.781246
 20
384.339663
 11
1089.812499
 21
330.909309
  0
LINE
  8
CutLine
  6
CONTINUOUS
 62
8
 10
1089.812499
 20
330.909309
 11
1128.205990
 21
323.916374
  0
LINE
  8
MountainLine
  6
CONTINUOUS
 62
5
 10
645.895849
 20
1522.427821
 11
635.386833
 21
1522.280840
  0
LINE
  8
ValleyLine
  6
CONTINUOUS
 62
1
 10
635.386833
 20
1522.280840
 11
634.133629
 21
1467.269933
  0
LINE
  8
ValleyLine
  6
CONTINUOUS
 62
1
 10
634.133629
 20
1467.269933
 11
645.895849
 21
1522.427821
  0
LINE
  8
MountainLine
  6
CONTINUOUS
 62
5
 10
660.030447
 20
1465.732782
 11
660.111290
 21
1519.841676
  0
LINE
  8
MountainLine
  6
CONTINUOUS
 62
5
 10
660.111290
 20
1519.841676
 11
645.895849
 21
1522.427821
  0
LINE
  8
MountainLine
  6
CONTINUOUS
 62
5
 10
645.895849
 20
1522.427821
 11
645.895849
 21
1465.198702
  0
LINE
  8
CutLine
  6
CONTINUOUS
 62
8
 10
645.895849
 20
1465.198702
 11
660.030447
 21
1465.732782
  0
LINE
  8
CutLine
  6
CONTINUOUS
 62
8
 10
634.133629
 20
1467.269933
 11
645.895849
 21
1465.198702
  0
LINE
  8
ValleyLine
  6
CONTINUOUS
 62
1
 10
669.086775
 20
1468.274209
 11
669.865124
 21
1515.190378
  0
LINE
  8
MountainLine
  6
CONTINUOUS
 62
5
 10
669.865124
 20
1515.190378
 11
660.111290
 21
1519.841676
  0
LINE
  8
MountainLine
  6
CONTINUOUS
 62
5
 10
660.030447
 20
1465.732782
 11
669.086775
 21
1468.274209
  0
LINE
  8
CutLine
  6
CONTINUOUS
 62
8
 10
399.477712
 20
236.603444
 11
435.764827
 21
236.737042
  0
LINE
  8
CutLine
  6
CONTINUOUS
 62
8
 10
435.764827
 20
236.737042
 11
426.241511
 21
263.665442
  0
LINE
  8
MountainLine
  6
CONTINUOUS
 62
5
 10
426.241511
 20
263.665442
 11
399.406194
 21
263.575155
  0
LINE
  8
CutLine
  6
CONTINUOUS
 62
8
 10
372.570774
 20
263.523122
 11
363.190398
 21
236.544595
  0
LINE
  8
MountainLine
  6
CONTINUOUS
 62
5
 10
363.190398
 20
236.544595
 11
399.477712
 21
236.603444
  0
LINE
  8
MountainLine
  6
CONTINUOUS
 62
5
 10
399.406194
 20
263.575155
 11
372.570774
 21
263.523122
  0
LINE
  8
MountainLine
  6
CONTINUOUS
 62
5
 10
435.764731
 20
236.760914
 11
399.477712
 21
236.603444
  0
LINE
  8
MountainLine
  6
CONTINUOUS
 62
5
 10
399.557187
 20
209.939474
 11
438.918034
 21
210.114407
  0
LINE
  8
MountainLine
  6
CONTINUOUS
 62
5
 10
438.918034
 20
210.114407
 11
435.764731
 21
236.760914
  0
LINE
  8
MountainLine
  6
CONTINUOUS
 62
5
 10
363.190398
 20
236.544595
 11
360.195995
 21
209.881339
  0
LINE
  8
MountainLine
  6
CONTINUOUS
 62
5
 10
360.195995
 20
209.881339
 11
399.557187
 21
209.939474
  0
LINE
  8
MountainLine
  6
CONTINUOUS
 62
5
 10
360.195993
 20
209.882915
 11
362.621180
 21
148.179986
  0
LINE
  8
ValleyLine
  6
CONTINUOUS
 62
1
 10
362.621180
 20
148.179986
 11
399.738620
 21
148.240559
  0
LINE
  8
ValleyLine
  6
CONTINUOUS
 62
1
 10
399.738620
 20
148.240559
 11
436.855757
 21
148.402965
  0
LINE
  8
MountainLine
  6
CONTINUOUS
 62
5
 10
436.855757
 20
148.402965
 11
438.918034
 21
210.114407
  0
LINE
  8
ValleyLine
  6
CONTINUOUS
 62
1
 10
400.036885
 20
49.724484
 11
433.658655
 21
49.867278
  0
LINE
  8
MountainLine
  6
CONTINUOUS
 62
5
 10
433.658655
 20
49.867278
 11
435.208700
 21
99.384140
  0
LINE
  8
ValleyLine
  6
CONTINUOUS
 62
1
 10
435.208688
 20
99.386888
 11
399.888913
 21
99.232503
  0
LINE
  8
ValleyLine
  6
CONTINUOUS
 62
1
 10
399.888913
 20
99.232503
 11
364.568850
 21
99.172999
  0
LINE
  8
MountainLine
  6
CONTINUOUS
 62
5
 10
364.568850
 20
99.172999
 11
366.414859
 21
49.667568
  0
LINE
  8
ValleyLine
  6
CONTINUOUS
 62
1
 10
366.414859
 20
49.667568
 11
400.036885
 21
49.724484
  0
LINE
  8
MountainLine
  6
CONTINUOUS
 62
5
 10
435.208688
 20
99.386888
 11
436.855757
 21
148.402965
  0
LINE
  8
MountainLine
  6
CONTINUOUS
 62
5
 10
362.621188
 20
148.175304
 11
364.568850
 21
99.172999
  0
LINE
  8
ValleyLine
  6
CONTINUOUS
 62
1
 10
400.164960
 20
6.320450
 11
433.539346
 21
4.958076
  0
LINE
  8
MountainLine
  6
CONTINUOUS
 62
5
 10
433.539346
 20
4.958076
 11
433.658660
 21
49.865998
  0
LINE
  8
MountainLine
  6
CONTINUOUS
 62
5
 10
366.414859
 20
49.667568
 11
366.799195
 21
4.761133
  0
LINE
  8
ValleyLine
  6
CONTINUOUS
 62
1
 10
366.799195
 20
4.761133
 11
400.164960
 21
6.320450
  0
LINE
  8
CutLine
  6
CONTINUOUS
 62
8
 10
399.331159
 20
302.281153
 11
375.212832
 21
302.234413
  0
LINE
  8
MountainLine
  6
CONTINUOUS
 62
5
 10
375.212832
 20
302.234413
 11
372.570774
 21
263.523122
  0
LINE
  8
CutLine
  6
CONTINUOUS
 62
8
 10
399.406194
 20
263.575155
 11
426.241612
 21
263.627176
  0
LINE
  8
CutLine
  6
CONTINUOUS
 62
8
 10
426.241612
 20
263.627176
 11
423.449485
 21
302.327932
  0
LINE
  8
CutLine
  6
CONTINUOUS
 62
8
 10
423.449485
 20
302.327932
 11
399.331159
 21
302.281153
  0
LINE
  8
MountainLine
  6
CONTINUOUS
 62
5
 10
100.712716
 20
506.860725
 11
176.122442
 21
508.593477
  0
LINE
  8
CutLine
  6
CONTINUOUS
 62
8
 10
176.122442
 20
508.593477
 11
157.852731
 21
529.641542
  0
LINE
  8
MountainLine
  6
CONTINUOUS
 62
5
 10
157.852731
 20
529.641542
 11
119.061624
 21
528.750216
  0
LINE
  8
MountainLine
  6
CONTINUOUS
 62
5
 10
119.061624
 20
528.750216
 11
100.712716
 21
506.860725
  0
LINE
  8
MountainLine
  6
CONTINUOUS
 62
5
 10
182.973013
 20
482.715698
 11
94.792783
 21
480.689480
  0
LINE
  8
CutLine
  6
CONTINUOUS
 62
8
 10
94.792783
 20
480.689480
 11
100.922374
 21
419.248589
  0
LINE
  8
CutLine
  6
CONTINUOUS
 62
8
 10
182.973013
 20
482.715698
 11
176.122442
 21
508.593477
  0
LINE
  8
CutLine
  6
CONTINUOUS
 62
8
 10
100.712716
 20
506.860725
 11
94.792783
 21
480.689480
  0
LINE
  8
CutLine
  6
CONTINUOUS
 62
8
 10
148.146955
 20
344.617318
 11
180.186506
 21
421.069845
  0
LINE
  8
CutLine
  6
CONTINUOUS
 62
8
 10
48.140578
 20
337.785823
 11
5.000000
 21
325.310802
  0
LINE
  8
MountainLine
  6
CONTINUOUS
 62
5
 10
85.803312
 20
283.284670
 11
148.146955
 21
344.617318
  0
LINE
  8
CutLine
  6
CONTINUOUS
 62
8
 10
81.889504
 20
374.051584
 11
48.140578
 21
337.785823
  0
LINE
  8
CutLine
  6
CONTINUOUS
 62
8
 10
5.000000
 20
325.310802
 11
10.939071
 21
263.405366
  0
LINE
  8
CutLine
  6
CONTINUOUS
 62
8
 10
10.939071
 20
263.405366
 11
85.803312
 21
283.284670
  0
LINE
  8
CutLine
  6
CONTINUOUS
 62
8
 10
100.922374
 20
419.248589
 11
81.889504
 21
374.051584
  0
LINE
  8
CutLine
  6
CONTINUOUS
 62
8
 10
180.186506
 20
421.069845
 11
182.973013
 21
482.715698
  0
LINE
  8
CutLine
  6
CONTINUOUS
 62
8
 10
323.463184
 20
241.449251
 11
349.875052
 21
246.181364
  0
LINE
  8
MountainLine
  6
CONTINUOUS
 62
5
 10
349.875052
 20
246.181364
 11
355.011220
 21
321.435927
  0
LINE
  8
CutLine
  6
CONTINUOUS
 62
8
 10
355.011220
 20
321.435927
 11
329.469179
 21
329.448040
  0
LINE
  8
MountainLine
  6
CONTINUOUS
 62
5
 10
329.469179
 20
329.448040
 11
323.463184
 21
241.449251
  0
LINE
  8
CutLine
  6
CONTINUOUS
 62
8
 10
262.361751
 20
250.346999
 11
323.463184
 21
241.449251
  0
LINE
  8
CutLine
  6
CONTINUOUS
 62
8
 10
178.598680
 20
201.297555
 11
216.351407
 21
233.374448
  0
LINE
  8
MountainLine
  6
CONTINUOUS
 62
5
 10
189.939070
 20
300.893441
 11
125.853809
 21
241.382912
  0
LINE
  8
CutLine
  6
CONTINUOUS
 62
8
 10
164.188340
 20
158.764301
 11
178.598680
 21
201.297555
  0
LINE
  8
CutLine
  6
CONTINUOUS
 62
8
 10
267.760381
 20
329.448040
 11
189.939070
 21
300.893441
  0
LINE
  8
CutLine
  6
CONTINUOUS
 62
8
 10
125.853809
 20
241.382912
 11
102.614233
 21
167.492701
  0
LINE
  8
CutLine
  6
CONTINUOUS
 62
8
 10
102.614233
 20
167.492701
 11
164.188340
 21
158.764301
  0
LINE
  8
CutLine
  6
CONTINUOUS
 62
8
 10
329.469179
 20
329.448040
 11
267.760381
 21
329.448040
  0
LINE
  8
CutLine
  6
CONTINUOUS
 62
8
 10
216.351407
 20
233.374448
 11
262.361751
 21
250.346999
  0
LINE
  8
MountainLine
  6
CONTINUOUS
 62
5
 10
349.875052
 20
246.181364
 11
372.570774
 21
263.523122
  0
LINE
  8
CutLine
  6
CONTINUOUS
 62
8
 10
375.212832
 20
302.234413
 11
355.011220
 21
321.435927
  0
LINE
  8
MountainLine
  6
CONTINUOUS
 62
5
 10
312.518272
 20
459.825774
 11
295.814593
 21
477.223559
  0
LINE
  8
MountainLine
  6
CONTINUOUS
 62
5
 10
295.814593
 20
477.223559
 11
271.489447
 21
463.618757
  0
LINE
  8
CutLine
  6
CONTINUOUS
 62
8
 10
271.489447
 20
463.618757
 11
293.025360
 21
441.312358
  0
LINE
  8
MountainLine
  6
CONTINUOUS
 62
5
 10
293.025360
 20
441.312358
 11
314.192844
 21
418.656043
  0
LINE
  8
MountainLine
  6
CONTINUOUS
 62
5
 10
314.192844
 20
418.656043
 11
329.032565
 21
442.248117
  0
LINE
  8
MountainLine
  6
CONTINUOUS
 62
5
 10
329.032565
 20
442.248117
 11
312.518272
 21
459.825774
  0
LINE
  8
CutLine
  6
CONTINUOUS
 62
8
 10
169.266500
 20
322.968995
 11
148.146955
 21
344.617318
  0
LINE
  8
CutLine
  6
CONTINUOUS
 62
8
 10
85.803312
 20
283.284670
 11
106.045182
 21
262.540841
  0
LINE
  8
MountainLine
  6
CONTINUOUS
 62
5
 10
189.939070
 20
300.893441
 11
169.266500
 21
322.968995
  0
LINE
  8
CutLine
  6
CONTINUOUS
 62
8
 10
106.045182
 20
262.540841
 11
125.853809
 21
241.382912
  0
LINE
  8
MountainLine
  6
CONTINUOUS
 62
5
 10
189.939070
 20
300.893441
 11
250.725447
 21
357.254225
  0
LINE
  8
CutLine
  6
CONTINUOUS
 62
8
 10
250.725447
 20
357.254225
 11
229.137643
 21
380.284493
  0
LINE
  8
MountainLine
  6
CONTINUOUS
 62
5
 10
148.113180
 20
344.584316
 11
169.266500
 21
322.968995
  0
LINE
  8
MountainLine
  6
CONTINUOUS
 62
5
 10
229.137643
 20
380.284493
 11
207.070414
 21
402.855804
  0
LINE
  8
MountainLine
  6
CONTINUOUS
 62
5
 10
207.070414
 20
402.855804
 11
148.113180
 21
344.584316
  0
LINE
  8
MountainLine
  6
CONTINUOUS
 62
5
 10
293.025360
 20
441.312358
 11
271.371503
 21
463.504282
  0
LINE
  8
MountainLine
  6
CONTINUOUS
 62
5
 10
271.371503
 20
463.504282
 11
250.569739
 21
446.655648
  0
LINE
  8
MountainLine
  6
CONTINUOUS
 62
5
 10
250.569739
 20
446.655648
 11
273.769638
 21
422.926891
  0
LINE
  8
MountainLine
  6
CONTINUOUS
 62
5
 10
296.400864
 20
398.655161
 11
314.192844
 21
418.656043
  0
LINE
  8
MountainLine
  6
CONTINUOUS
 62
5
 10
273.769638
 20
422.926891
 11
296.400864
 21
398.655161
  0
LINE
  8
CutLine
  6
CONTINUOUS
 62
8
 10
273.769638
 20
422.926891
 11
250.554439
 21
446.640679
  0
LINE
  8
MountainLine
  6
CONTINUOUS
 62
5
 10
250.554439
 20
446.640679
 11
207.070414
 21
402.855804
  0
LINE
  8
MountainLine
  6
CONTINUOUS
 62
5
 10
250.679890
 20
357.211606
 11
296.400864
 21
398.655161
  0
LINE
  8
MountainLine
  6
CONTINUOUS
 62
5
 10
229.137643
 20
380.284493
 11
250.679890
 21
357.211606
  0
LINE
  8
MountainLine
  6
CONTINUOUS
 62
5
 10
1357.523898
 20
1473.755398
 11
1387.354209
 21
1430.961883
  0
LINE
  8
CutLine
  6
CONTINUOUS
 62
8
 10
1387.354209
 20
1430.961883
 11
1433.068545
 21
1455.053703
  0
LINE
  8
CutLine
  6
CONTINUOUS
 62
8
 10
1433.068545
 20
1455.053703
 11
1403.520977
 21
1497.373037
  0
LINE
  8
CutLine
  6
CONTINUOUS
 62
8
 10
1403.520977
 20
1497.373037
 11
1357.523898
 21
1473.755398
  0
LINE
  8
CutLine
  6
CONTINUOUS
 62
8
 10
1348.934280
 20
1396.405763
 11
1387.354209
 21
1430.961883
  0
LINE
  8
MountainLine
  6
CONTINUOUS
 62
5
 10
1357.523898
 20
1473.755398
 11
1319.451044
 21
1438.769941
  0
LINE
  8
MountainLine
  6
CONTINUOUS
 62
5
 10
1319.451044
 20
1438.769941
 11
1348.934280
 21
1396.405763
  0
LINE
  8
CutLine
  6
CONTINUOUS
 62
8
 10
1357.523898
 20
1473.755398
 11
1335.440362
 21
1496.216224
  0
LINE
  8
MountainLine
  6
CONTINUOUS
 62
5
 10
1335.440362
 20
1496.216224
 11
1319.451044
 21
1438.769941
  0
LINE
  8
MountainLine
  6
CONTINUOUS
 62
5
 10
1335.440362
 20
1496.216224
 11
1295.784442
 21
1461.200325
  0
LINE
  8
CutLine
  6
CONTINUOUS
 62
8
 10
1295.784442
 20
1461.200325
 11
1319.451044
 21
1438.769941
  0
LINE
  8
MountainLine
  6
CONTINUOUS
 62
5
 10
1327.551314
 20
1567.806272
 11
1335.440362
 21
1496.216224
  0
LINE
  8
MountainLine
  6
CONTINUOUS
 62
5
 10
1335.440362
 20
1496.216224
 11
1352.085651
 21
1546.432147
  0
LINE
  8
CutLine
  6
CONTINUOUS
 62
8
 10
1352.085651
 20
1546.432147
 11
1327.551314
 21
1567.806272
  0
LINE
  8
ValleyLine
  6
CONTINUOUS
 62
1
 10
1327.551314
 20
1567.806272
 11
1306.814765
 21
1515.125306
  0
LINE
  8
MountainLine
  6
CONTINUOUS
 62
5
 10
1306.814765
 20
1515.125306
 11
1335.440362
 21
1496.216224
  0
LINE
  8
MountainLine
  6
CONTINUOUS
 62
5
 10
1266.497035
 20
1475.378992
 11
1335.440362
 21
1496.216224
  0
LINE
  8
ValleyLine
  6
CONTINUOUS
 62
1
 10
1306.814765
 20
1515.125306
 11
1266.497035
 21
1475.378992
  0
LINE
  8
CutLine
  6
CONTINUOUS
 62
8
 10
1266.497035
 20
1475.378992
 11
1295.784442
 21
1461.200325
  0
LINE
  8
MountainLine
  6
CONTINUOUS
 62
5
 10
1382.004074
 20
1533.466112
 11
1335.440362
 21
1496.216224
  0
LINE
  8
MountainLine
  6
CONTINUOUS
 62
5
 10
1335.440362
 20
1496.216224
 11
1364.765556
 21
1484.718213
  0
LINE
  8
MountainLine
  6
CONTINUOUS
 62
5
 10
1364.765556
 20
1484.718213
 11
1382.004074
 21
1533.466112
  0
LINE
  8
CutLine
  6
CONTINUOUS
 62
8
 10
1382.004074
 20
1533.466112
 11
1352.085651
 21
1546.432147
  0
LINE
  8
MountainLine
  6
CONTINUOUS
 62
5
 10
929.637652
 20
1254.478808
 11
928.852986
 21
1203.412250
  0
LINE
  8
CutLine
  6
CONTINUOUS
 62
8
 10
928.852986
 20
1203.412250
 11
945.631654
 21
1189.237403
  0
LINE
  8
MountainLine
  6
CONTINUOUS
 62
5
 10
945.631654
 20
1189.237403
 11
929.637652
 21
1254.478808
  0
LINE
  8
CutLine
  6
CONTINUOUS
 62
8
 10
945.631654
 20
1189.237403
 11
960.784659
 21
1228.213911
  0
LINE
  8
ValleyLine
  6
CONTINUOUS
 62
1
 10
960.784659
 20
1228.213911
 11
929.637652
 21
1254.478808
  0
LINE
  8
ValleyLine
  6
CONTINUOUS
 62
1
 10
1384.875873
 20
1133.249492
 11
1337.205178
 21
1166.031244
  0
LINE
  8
ValleyLine
  6
CONTINUOUS
 62
1
 10
1337.205178
 20
1166.031244
 11
1374.880486
 21
1127.856655
  0
LINE
  8
MountainLine
  6
CONTINUOUS
 62
5
 10
1374.880486
 20
1127.856655
 11
1384.875873
 21
1133.249492
  0
LINE
  8
CutLine
  6
CONTINUOUS
 62
8
 10
1354.347359
 20
1184.018596
 11
1345.252938
 21
1172.791021
  0
LINE
  8
MountainLine
  6
CONTINUOUS
 62
5
 10
1345.252938
 20
1172.791021
 11
1384.875873
 21
1133.249492
  0
LINE
  8
MountainLine
  6
CONTINUOUS
 62
5
 10
1384.875873
 20
1133.249492
 11
1392.500047
 21
1146.270109
  0
LINE
  8
MountainLine
  6
CONTINUOUS
 62
5
 10
1392.500047
 20
1146.270109
 11
1354.347359
 21
1184.018596
  0
LINE
  8
CutLine
  6
CONTINUOUS
 62
8
 10
1345.252938
 20
1172.791021
 11
1337.205178
 21
1166.031244
  0
LINE
  8
CutLine
  6
CONTINUOUS
 62
8
 10
1361.149776
 20
1192.414960
 11
1354.347359
 21
1184.018596
  0
LINE
  8
MountainLine
  6
CONTINUOUS
 62
5
 10
1392.500047
 20
1146.270109
 11
1361.149776
 21
1192.414960
  0
LINE
  8
CutLine
  6
CONTINUOUS
 62
8
 10
1392.500047
 20
1146.270109
 11
1409.493654
 21
1147.495109
  0
LINE
  8
ValleyLine
  6
CONTINUOUS
 62
1
 10
1409.493654
 20
1147.495109
 11
1361.149776
 21
1192.414960
  0
LINE
  8
MountainLine
  6
CONTINUOUS
 62
5
 10
1554.049550
 20
1179.861305
 11
1567.828996
 21
1234.116601
  0
LINE
  8
CutLine
  6
CONTINUOUS
 62
8
 10
1567.828996
 20
1234.116601
 11
1554.267509
 21
1239.101878
  0
LINE
  8
MountainLine
  6
CONTINUOUS
 62
5
 10
1554.267509
 20
1239.101878
 11
1540.832488
 21
1187.139613
  0
LINE
  8
MountainLine
  6
CONTINUOUS
 62
5
 10
1540.832488
 20
1187.139613
 11
1554.049550
 21
1179.861305
  0
LINE
  8
ValleyLine
  6
CONTINUOUS
 62
1
 10
1554.049550
 20
1179.861305
 11
1578.203247
 21
1232.432573
  0
LINE
  8
CutLine
  6
CONTINUOUS
 62
8
 10
1578.203247
 20
1232.432573
 11
1567.828996
 21
1234.116601
  0
LINE
  8
MountainLine
  6
CONTINUOUS
 62
5
 10
1554.049550
 20
1179.861305
 11
1565.396477
 21
1180.348835
  0
LINE
  8
ValleyLine
  6
CONTINUOUS
 62
1
 10
1565.396477
 20
1180.348835
 11
1578.203247
 21
1232.432573
  0
LINE
  8
ValleyLine
  6
CONTINUOUS
 62
1
 10
1544.124644
 20
1242.829362
 11
1525.609556
 21
1179.488101
  0
LINE
  8
CutLine
  6
CONTINUOUS
 62
8
 10
1525.609556
 20
1179.488101
 11
1540.832488
 21
1187.139613
  0
LINE
  8
MountainLine
  6
CONTINUOUS
 62
5
 10
1540.832488
 20
1187.139613
 11
1544.124644
 21
1242.829362
  0
LINE
  8
CutLine
  6
CONTINUOUS
 62
8
 10
1554.267509
 20
1239.101878
 11
1544.124644
 21
1242.829362
  0
LINE
  8
ValleyLine
  6
CONTINUOUS
 62
1
 10
802.584298
 20
1450.982305
 11
822.735015
 21
1466.288972
  0
LINE
  8
CutLine
  6
CONTINUOUS
 62
8
 10
822.735015
 20
1466.288972
 11
800.348368
 21
1504.048616
  0
LINE
  8
MountainLine
  6
CONTINUOUS
 62
5
 10
800.348368
 20
1504.048616
 11
802.584298
 21
1450.982305
  0
LINE
  8
ValleyLine
  6
CONTINUOUS
 62
1
 10
821.246309
 20
1401.797717
 11
858.751691
 21
1430.078370
  0
LINE
  8
CutLine
  6
CONTINUOUS
 62
8
 10
858.751691
 20
1430.078370
 11
822.735015
 21
1466.288972
  0
LINE
  8
MountainLine
  6
CONTINUOUS
 62
5
 10
802.584298
 20
1450.982305
 11
821.246309
 21
1401.797717
  0
LINE
  8
MountainLine
  6
CONTINUOUS
 62
5
 10
883.009752
 20
1248.796571
 11
903.723085
 21
1200.440072
  0
LINE
  8
ValleyLine
  6
CONTINUOUS
 62
1
 10
903.723085
 20
1200.440072
 11
928.852986
 21
1203.412250
  0
LINE
  8
ValleyLine
  6
CONTINUOUS
 62
1
 10
929.637652
 20
1254.478808
 11
883.009752
 21
1248.796571
  0
LINE
  8
ValleyLine
  6
CONTINUOUS
 62
1
 10
1461.125760
 20
1398.912393
 11
1453.763020
 21
1475.776440
  0
LINE
  8
MountainLine
  6
CONTINUOUS
 62
5
 10
1453.763020
 20
1475.776440
 11
1450.138077
 21
1424.290086
  0
LINE
  8
MountainLine
  6
CONTINUOUS
 62
5
 10
1450.138077
 20
1424.290086
 11
1461.125760
 21
1398.912393
  0
LINE
  8
MountainLine
  6
CONTINUOUS
 62
5
 10
1352.494867
 20
1368.981710
 11
1348.934280
 21
1396.405763
  0
LINE
  8
ValleyLine
  6
CONTINUOUS
 62
1
 10
1319.451044
 20
1438.769941
 11
1352.494867
 21
1368.981710
  0
LINE
  8
MountainLine
  6
CONTINUOUS
 62
5
 10
1278.953118
 20
1212.974452
 11
1288.037108
 21
1287.340675
  0
LINE
  8
MountainLine
  6
CONTINUOUS
 62
5
 10
1288.037108
 20
1287.340675
 11
1230.656106
 21
1305.233780
  0
LINE
  8
MountainLine
  6
CONTINUOUS
 62
5
 10
1230.656106
 20
1305.233780
 11
1219.265112
 21
1211.981179
  0
LINE
  8
CutLine
  6
CONTINUOUS
 62
8
 10
1219.265112
 20
1211.981179
 11
1278.953118
 21
1212.974452
  0
LINE
  8
CutLine
  6
CONTINUOUS
 62
8
 10
1604.191996
 20
1302.586340
 11
1655.965752
 21
1332.303723
  0
LINE
  8
MountainLine
  6
CONTINUOUS
 62
5
 10
1655.965752
 20
1332.303723
 11
1598.420907
 21
1406.562680
  0
LINE
  8
MountainLine
  6
CONTINUOUS
 62
5
 10
1598.420907
 20
1406.562680
 11
1558.301660
 21
1361.805681
  0
LINE
  8
MountainLine
  6
CONTINUOUS
 62
5
 10
1558.301660
 20
1361.805681
 11
1604.191996
 21
1302.586340
  0
LINE
  8
MountainLine
  6
CONTINUOUS
 62
5
 10
1504.502603
 20
1454.915178
 11
1489.480026
 21
1393.785610
  0
LINE
  8
MountainLine
  6
CONTINUOUS
 62
5
 10
1489.480026
 20
1393.785610
 11
1558.301660
 21
1361.805681
  0
LINE
  8
CutLine
  6
CONTINUOUS
 62
8
 10
1558.301660
 20
1361.805681
 11
1589.877353
 21
1412.949777
  0
LINE
  8
MountainLine
  6
CONTINUOUS
 62
5
 10
1589.877353
 20
1412.949777
 11
1504.502603
 21
1454.915178
  0
LINE
  8
ValleyLine
  6
CONTINUOUS
 62
1
 10
1484.523336
 20
1461.346237
 11
1461.125760
 21
1398.912393
  0
LINE
  8
CutLine
  6
CONTINUOUS
 62
8
 10
1461.125760
 20
1398.912393
 11
1489.480026
 21
1393.785610
  0
LINE
  8
CutLine
  6
CONTINUOUS
 62
8
 10
1504.502603
 20
1454.915178
 11
1484.523336
 21
1461.346237
  0
LINE
  8
CutLine
  6
CONTINUOUS
 62
8
 10
1484.523336
 20
1461.346237
 11
1453.763020
 21
1475.776440
  0
LINE
  8
MountainLine
  6
CONTINUOUS
 62
5
 10
1286.556204
 20
1394.865201
 11
1234.722736
 21
1315.095319
  0
LINE
  8
CutLine
  6
CONTINUOUS
 62
8
 10
1234.722736
 20
1315.095319
 11
1288.037108
 21
1287.340675
  0
LINE
  8
MountainLine
  6
CONTINUOUS
 62
5
 10
1288.037108
 20
1287.340675
 11
1330.767658
 21
1350.056168
  0
LINE
  8
MountainLine
  6
CONTINUOUS
 62
5
 10
1330.767658
 20
1350.056168
 11
1286.556204
 21
1394.865201
  0
LINE
  8
CutLine
  6
CONTINUOUS
 62
8
 10
1330.767658
 20
1350.056168
 11
1352.494867
 21
1368.981710
  0
LINE
  8
ValleyLine
  6
CONTINUOUS
 62
1
 10
1352.494867
 20
1368.981710
 11
1300.422262
 21
1410.621536
  0
LINE
  8
CutLine
  6
CONTINUOUS
 62
8
 10
1300.422262
 20
1410.621536
 11
1286.556204
 21
1394.865201
  0
LINE
  8
CutLine
  6
CONTINUOUS
 62
8
 10
1319.451044
 20
1438.769941
 11
1300.422262
 21
1410.621536
  0
LINE
  8
MountainLine
  6
CONTINUOUS
 62
5
 10
1304.819236
 20
1142.662320
 11
1278.953118
 21
1212.974452
  0
LINE
  8
MountainLine
  6
CONTINUOUS
 62
5
 10
1278.953118
 20
1212.974452
 11
1220.622630
 21
1200.278042
  0
LINE
  8
MountainLine
  6
CONTINUOUS
 62
5
 10
1220.622630
 20
1200.278042
 11
1253.057817
 21
1112.109114
  0
LINE
  8
CutLine
  6
CONTINUOUS
 62
8
 10
1253.057817
 20
1112.109114
 11
1304.819236
 21
1142.662320
  0
LINE
  8
CutLine
  6
CONTINUOUS
 62
8
 10
1617.987884
 20
1228.948536
 11
1678.093375
 21
1229.217618
  0
LINE
  8
MountainLine
  6
CONTINUOUS
 62
5
 10
1678.093375
 20
1229.217618
 11
1660.793814
 21
1321.556813
  0
LINE
  8
MountainLine
  6
CONTINUOUS
 62
5
 10
1660.793814
 20
1321.556813
 11
1604.191996
 21
1302.586340
  0
LINE
  8
MountainLine
  6
CONTINUOUS
 62
5
 10
1604.191996
 20
1302.586340
 11
1617.987884
 21
1228.948536
  0
LINE
  8
CutLine
  6
CONTINUOUS
 62
8
 10
1597.033143
 20
1156.035591
 11
1650.807197
 21
1126.544371
  0
LINE
  8
MountainLine
  6
CONTINUOUS
 62
5
 10
1650.807197
 20
1126.544371
 11
1677.083700
 21
1217.974618
  0
LINE
  8
MountainLine
  6
CONTINUOUS
 62
5
 10
1677.083700
 20
1217.974618
 11
1617.987884
 21
1228.948536
  0
LINE
  8
MountainLine
  6
CONTINUOUS
 62
5
 10
1617.987884
 20
1228.948536
 11
1597.033143
 21
1156.035591
  0
LINE
  8
MountainLine
  6
CONTINUOUS
 62
5
 10
1360.160832
 20
1090.771024
 11
1304.819236
 21
1142.662320
  0
LINE
  8
MountainLine
  6
CONTINUOUS
 62
5
 10
1304.819236
 20
1142.662320
 11
1259.683349
 21
1102.969820
  0
LINE
  8
MountainLine
  6
CONTINUOUS
 62
5
 10
1259.683349
 20
1102.969820
 11
1329.079754
 21
1037.899981
  0
LINE
  8
CutLine
  6
CONTINUOUS
 62
8
 10
1329.079754
 20
1037.899981
 11
1360.160832
 21
1090.771024
  0
LINE
  8
MountainLine
  6
CONTINUOUS
 62
5
 10
1337.205178
 20
1166.031244
 11
1304.819236
 21
1142.662320
  0
LINE
  8
CutLine
  6
CONTINUOUS
 62
8
 10
1360.160832
 20
1090.771024
 11
1374.880486
 21
1127.856655
  0
LINE
  8
CutLine
  6
CONTINUOUS
 62
8
 10
1337.205178
 20
1166.031244
 11
1319.204723
 21
1218.028885
  0
LINE
  8
MountainLine
  6
CONTINUOUS
 62
5
 10
1319.204723
 20
1218.028885
 11
1278.953118
 21
1212.974452
  0
LINE
  8
CutLine
  6
CONTINUOUS
 62
8
 10
1319.204723
 20
1218.028885
 11
1324.827380
 21
1272.766040
  0
LINE
  8
MountainLine
  6
CONTINUOUS
 62
5
 10
1324.827380
 20
1272.766040
 11
1288.037108
 21
1287.340675
  0
LINE
  8
MountainLine
  6
CONTINUOUS
 62
5
 10
1567.031830
 20
1286.311789
 11
1604.191996
 21
1302.586340
  0
LINE
  8
MountainLine
  6
CONTINUOUS
 62
5
 10
1558.301660
 20
1361.805681
 11
1534.167813
 21
1330.444853
  0
LINE
  8
CutLine
  6
CONTINUOUS
 62
8
 10
1534.167813
 20
1330.444853
 11
1567.031830
 21
1286.311789
  0
LINE
  8
MountainLine
  6
CONTINUOUS
 62
5
 10
1617.987884
 20
1228.948536
 11
1578.203247
 21
1232.432573
  0
LINE
  8
MountainLine
  6
CONTINUOUS
 62
5
 10
1565.396477
 20
1180.348835
 11
1597.033143
 21
1156.035591
  0
LINE
  8
CutLine
  6
CONTINUOUS
 62
8
 10
1567.031830
 20
1286.311789
 11
1578.203247
 21
1232.432573
  0
LINE
  8
MountainLine
  6
CONTINUOUS
 62
5
 10
1405.736740
 20
1387.843507
 11
1353.982037
 21
1367.124864
  0
LINE
  8
MountainLine
  6
CONTINUOUS
 62
5
 10
1353.982037
 20
1367.124864
 11
1352.711070
 21
1318.583392
  0
LINE
  8
MountainLine
  6
CONTINUOUS
 62
5
 10
1405.736740
 20
1387.843507
 11
1416.093795
 21
1350.253437
  0
LINE
  8
CutLine
  6
CONTINUOUS
 62
8
 10
1416.093795
 20
1350.253437
 11
1486.752652
 21
1355.515385
  0
LINE
  8
CutLine
  6
CONTINUOUS
 62
8
 10
1352.711070
 20
1318.583392
 11
1416.093795
 21
1350.253437
  0
LINE
  8
MountainLine
  6
CONTINUOUS
 62
5
 10
1486.752652
 20
1355.515385
 11
1460.799478
 21
1396.555892
  0
LINE
  8
MountainLine
  6
CONTINUOUS
 62
5
 10
1460.799478
 20
1396.555892
 11
1405.736740
 21
1387.843507
  0
LINE
  8
MountainLine
  6
CONTINUOUS
 62
5
 10
1449.529747
 20
1421.809597
 11
1397.960574
 21
1418.517679
  0
LINE
  8
CutLine
  6
CONTINUOUS
 62
8
 10
1397.960574
 20
1418.517679
 11
1405.736740
 21
1387.843507
  0
LINE
  8
CutLine
  6
CONTINUOUS
 62
8
 10
1460.799478
 20
1396.555892
 11
1449.529747
 21
1421.809597
  0
LINE
  8
MountainLine
  6
CONTINUOUS
 62
5
 10
1405.736740
 20
1387.843507
 11
1396.705126
 21
1418.171770
  0
LINE
  8
MountainLine
  6
CONTINUOUS
 62
5
 10
1396.705126
 20
1418.171770
 11
1350.727202
 21
1394.586883
  0
LINE
  8
CutLine
  6
CONTINUOUS
 62
8
 10
1350.727202
 20
1394.586883
 11
1353.982037
 21
1367.124864
  0
LINE
  8
CutLine
  6
CONTINUOUS
 62
8
 10
1324.827380
 20
1272.766040
 11
1352.711070
 21
1318.583392
  0
LINE
  8
MountainLine
  6
CONTINUOUS
 62
5
 10
1353.982037
 20
1367.124864
 11
1330.767658
 21
1350.056168
  0
LINE
  8
CutLine
  6
CONTINUOUS
 62
8
 10
1486.752652
 20
1355.515385
 11
1534.167813
 21
1330.444853
  0
LINE
  8
MountainLine
  6
CONTINUOUS
 62
5
 10
1489.480026
 20
1393.785610
 11
1460.799478
 21
1396.555892
  0
LINE
  8
CutLine
  6
CONTINUOUS
 62
8
 10
1565.396477
 20
1180.348835
 11
1515.748090
 21
1129.797882
  0
LINE
  8
MountainLine
  6
CONTINUOUS
 62
5
 10
1515.748090
 20
1129.797882
 11
1540.239691
 21
1094.949868
  0
LINE
  8
MountainLine
  6
CONTINUOUS
 62
5
 10
1540.239691
 20
1094.949868
 11
1597.033143
 21
1156.035591
  0
LINE
  8
ValleyLine
  6
CONTINUOUS
 62
1
 10
1515.748090
 20
1129.797882
 11
1451.367884
 21
1100.208172
  0
LINE
  8
MountainLine
  6
CONTINUOUS
 62
5
 10
1451.367884
 20
1100.208172
 11
1463.527220
 21
1062.206030
  0
LINE
  8
MountainLine
  6
CONTINUOUS
 62
5
 10
1463.527220
 20
1062.206030
 11
1540.239691
 21
1094.949868
  0
LINE
  8
MountainLine
  6
CONTINUOUS
 62
5
 10
1540.239691
 20
1094.949868
 11
1580.051517
 21
1046.294486
  0
LINE
  8
MountainLine
  6
CONTINUOUS
 62
5
 10
1580.051517
 20
1046.294486
 11
1644.805614
 21
1117.575586
  0
LINE
  8
MountainLine
  6
CONTINUOUS
 62
5
 10
1644.805614
 20
1117.575586
 11
1597.033143
 21
1156.035591
  0
LINE
  8
MountainLine
  6
CONTINUOUS
 62
5
 10
1483.531167
 20
1004.229978
 11
1572.532844
 21
1041.010272
  0
LINE
  8
CutLine
  6
CONTINUOUS
 62
8
 10
1572.532844
 20
1041.010272
 11
1540.239691
 21
1094.949868
  0
LINE
  8
MountainLine
  6
CONTINUOUS
 62
5
 10
1463.527220
 20
1062.206030
 11
1483.531167
 21
1004.229978
  0
LINE
  8
MountainLine
  6
CONTINUOUS
 62
5
 10
963.774554
 20
946.174265
 11
915.406876
 21
1027.803536
  0
LINE
  8
CutLine
  6
CONTINUOUS
 62
8
 10
915.406876
 20
1027.803536
 11
871.064611
 21
1010.591670
  0
LINE
  8
ValleyLine
  6
CONTINUOUS
 62
1
 10
871.064611
 20
1010.591670
 11
886.971472
 21
916.362416
  0
LINE
  8
MountainLine
  6
CONTINUOUS
 62
5
 10
886.971472
 20
916.362416
 11
963.774554
 21
946.174265
  0
LINE
  8
MountainLine
  6
CONTINUOUS
 62
5
 10
1025.833249
 20
1001.890376
 11
951.236479
 21
1059.971241
  0
LINE
  8
CutLine
  6
CONTINUOUS
 62
8
 10
951.236479
 20
1059.971241
 11
915.406876
 21
1027.803536
  0
LINE
  8
MountainLine
  6
CONTINUOUS
 62
5
 10
963.774554
 20
946.174265
 11
1025.833249
 21
1001.890376
  0
LINE
  8
MountainLine
  6
CONTINUOUS
 62
5
 10
1025.833249
 20
1001.890376
 11
1064.634444
 21
1075.714727
  0
LINE
  8
MountainLine
  6
CONTINUOUS
 62
5
 10
1064.634444
 20
1075.714727
 11
973.638351
 21
1102.593745
  0
LINE
  8
CutLine
  6
CONTINUOUS
 62
8
 10
973.638351
 20
1102.593745
 11
951.236479
 21
1059.971241
  0
LINE
  8
MountainLine
  6
CONTINUOUS
 62
5
 10
1064.634444
 20
1075.714727
 11
1074.707137
 21
1157.482687
  0
LINE
  8
ValleyLine
  6
CONTINUOUS
 62
1
 10
1074.707137
 20
1157.482687
 11
979.453816
 21
1149.802486
  0
LINE
  8
CutLine
  6
CONTINUOUS
 62
8
 10
979.453816
 20
1149.802486
 11
973.638351
 21
1102.593745
  0
LINE
  8
CutLine
  6
CONTINUOUS
 62
8
 10
1059.411332
 20
1247.554968
 11
1074.262824
 21
1221.373696
  0
LINE
  8
ValleyLine
  6
CONTINUOUS
 62
1
 10
1074.262824
 20
1221.373696
 11
1123.855394
 21
1312.286690
  0
LINE
  8
MountainLine
  6
CONTINUOUS
 62
5
 10
1123.855394
 20
1312.286690
 11
1059.411332
 21
1247.554968
  0
LINE
  8
CutLine
  6
CONTINUOUS
 62
8
 10
1074.262824
 20
1221.373696
 11
1113.990502
 21
1231.527566
  0
LINE
  8
MountainLine
  6
CONTINUOUS
 62
5
 10
1113.990502
 20
1231.527566
 11
1123.855394
 21
1312.286690
  0
LINE
  8
MountainLine
  6
CONTINUOUS
 62
5
 10
1123.855394
 20
1312.286690
 11
1028.333934
 21
1309.488875
  0
LINE
  8
CutLine
  6
CONTINUOUS
 62
8
 10
1028.333934
 20
1309.488875
 11
1021.703835
 21
1262.986286
  0
LINE
  8
ValleyLine
  6
CONTINUOUS
 62
1
 10
1021.703835
 20
1262.986286
 11
1123.855394
 21
1312.286690
  0
LINE
  8
CutLine
  6
CONTINUOUS
 62
8
 10
1021.703835
 20
1262.986286
 11
1059.411332
 21
1247.554968
  0
LINE
  8
MountainLine
  6
CONTINUOUS
 62
5
 10
1114.134707
 20
1353.375640
 11
1104.888334
 21
1392.459667
  0
LINE
  8
MountainLine
  6
CONTINUOUS
 62
5
 10
1104.888334
 20
1392.459667
 11
1017.383298
 21
1355.776759
  0
LINE
  8
CutLine
  6
CONTINUOUS
 62
8
 10
1017.383298
 20
1355.776759
 11
1028.333934
 21
1309.488875
  0
LINE
  8
MountainLine
  6
CONTINUOUS
 62
5
 10
1123.855394
 20
1312.286690
 11
1114.134707
 21
1353.375640
  0
LINE
  8
MountainLine
  6
CONTINUOUS
 62
5
 10
990.448309
 20
1395.689481
 11
1058.235551
 21
1461.590568
  0
LINE
  8
MountainLine
  6
CONTINUOUS
 62
5
 10
1058.235551
 20
1461.590568
 11
990.448309
 21
1510.175078
  0
LINE
  8
MountainLine
  6
CONTINUOUS
 62
5
 10
990.448309
 20
1510.175078
 11
951.311350
 21
1423.739749
  0
LINE
  8
CutLine
  6
CONTINUOUS
 62
8
 10
951.311350
 20
1423.739749
 11
990.448309
 21
1395.689481
  0
LINE
  8
MountainLine
  6
CONTINUOUS
 62
5
 10
1104.888334
 20
1392.459667
 11
1058.235551
 21
1461.590568
  0
LINE
  8
CutLine
  6
CONTINUOUS
 62
8
 10
990.448309
 20
1395.689481
 11
1017.383298
 21
1355.776759
  0
LINE
  8
MountainLine
  6
CONTINUOUS
 62
5
 10
910.842341
 20
1531.396391
 11
829.891871
 21
1523.249355
  0
LINE
  8
CutLine
  6
CONTINUOUS
 62
8
 10
829.891871
 20
1523.249355
 11
818.896326
 21
1483.746345
  0
LINE
  8
ValleyLine
  6
CONTINUOUS
 62
1
 10
818.896326
 20
1483.746345
 11
910.842341
 21
1531.396391
  0
LINE
  8
CutLine
  6
CONTINUOUS
 62
8
 10
818.896326
 20
1483.746345
 11
844.756187
 21
1468.342018
  0
LINE
  8
MountainLine
  6
CONTINUOUS
 62
5
 10
844.756187
 20
1468.342018
 11
910.842341
 21
1531.396391
  0
LINE
  8
CutLine
  6
CONTINUOUS
 62
8
 10
844.756187
 20
1468.342018
 11
858.751691
 21
1430.078370
  0
LINE
  8
MountainLine
  6
CONTINUOUS
 62
5
 10
858.751691
 20
1430.078370
 11
905.350825
 21
1435.991882
  0
LINE
  8
MountainLine
  6
CONTINUOUS
 62
5
 10
905.350825
 20
1435.991882
 11
844.756187
 21
1468.342018
  0
LINE
  8
MountainLine
  6
CONTINUOUS
 62
5
 10
905.350825
 20
1435.991882
 11
910.842341
 21
1531.396391
  0
LINE
  8
CutLine
  6
CONTINUOUS
 62
8
 10
905.350825
 20
1435.991882
 11
951.311350
 21
1423.739749
  0
LINE
  8
MountainLine
  6
CONTINUOUS
 62
5
 10
951.640684
 20
1520.520391
 11
910.842341
 21
1531.396391
  0
LINE
  8
CutLine
  6
CONTINUOUS
 62
8
 10
990.448309
 20
1510.175078
 11
951.640684
 21
1520.520391
  0
LINE
  8
MountainLine
  6
CONTINUOUS
 62
5
 10
760.464873
 20
749.841872
 11
725.000000
 21
730.992468
  0
LINE
  8
CutLine
  6
CONTINUOUS
 62
8
 10
725.000000
 20
730.992468
 11
748.477280
 21
680.506086
  0
LINE
  8
CutLine
  6
CONTINUOUS
 62
8
 10
770.097573
 20
634.013055
 11
854.100891
 21
678.660398
  0
LINE
  8
CutLine
  6
CONTINUOUS
 62
8
 10
748.477280
 20
680.506086
 11
770.097573
 21
634.013055
  0
LINE
  8
MountainLine
  6
CONTINUOUS
 62
5
 10
854.100891
 20
678.660398
 11
797.748992
 21
769.658195
  0
LINE
  8
CutLine
  6
CONTINUOUS
 62
8
 10
797.748992
 20
769.658195
 11
760.464873
 21
749.841872
  0
LINE
  8
MountainLine
  6
CONTINUOUS
 62
5
 10
931.099384
 20
732.484502
 11
864.431649
 21
816.271242
  0
LINE
  8
CutLine
  6
CONTINUOUS
 62
8
 10
864.431649
 20
816.271242
 11
797.748992
 21
769.658195
  0
LINE
  8
CutLine
  6
CONTINUOUS
 62
8
 10
854.100891
 20
678.660398
 11
931.099384
 21
732.484502
  0
LINE
  8
CutLine
  6
CONTINUOUS
 62
8
 10
1113.990502
 20
1231.527566
 11
1094.208116
 21
1152.609827
  0
LINE
  8
MountainLine
  6
CONTINUOUS
 62
5
 10
1094.208116
 20
1152.609827
 11
1196.422374
 21
1120.854835
  0
LINE
  8
CutLine
  6
CONTINUOUS
 62
8
 10
1196.422374
 20
1120.854835
 11
1219.265112
 21
1211.981179
  0
LINE
  8
MountainLine
  6
CONTINUOUS
 62
5
 10
1219.265112
 20
1211.981179
 11
1113.990502
 21
1231.527566
  0
LINE
  8
MountainLine
  6
CONTINUOUS
 62
5
 10
924.833803
 20
870.777493
 11
1000.845776
 21
795.422903
  0
LINE
  8
CutLine
  6
CONTINUOUS
 62
8
 10
1000.845776
 20
795.422903
 11
1063.223678
 21
867.248680
  0
LINE
  8
MountainLine
  6
CONTINUOUS
 62
5
 10
1063.223678
 20
867.248680
 11
978.854651
 21
932.980450
  0
LINE
  8
CutLine
  6
CONTINUOUS
 62
8
 10
978.854651
 20
932.980450
 11
924.833803
 21
870.777493
  0
LINE
  8
MountainLine
  6
CONTINUOUS
 62
5
 10
1117.469888
 20
946.819007
 11
1025.833249
 21
1001.890376
  0
LINE
  8
CutLine
  6
CONTINUOUS
 62
8
 10
1025.833249
 20
1001.890376
 11
978.854651
 21
932.980450
  0
LINE
  8
CutLine
  6
CONTINUOUS
 62
8
 10
1063.223678
 20
867.248680
 11
1117.469888
 21
946.819007
  0
LINE
  8
CutLine
  6
CONTINUOUS
 62
8
 10
1117.469888
 20
946.819007
 11
1162.273645
 21
1032.064018
  0
LINE
  8
MountainLine
  6
CONTINUOUS
 62
5
 10
1162.273645
 20
1032.064018
 11
1064.634444
 21
1075.714727
  0
LINE
  8
CutLine
  6
CONTINUOUS
 62
8
 10
1162.273645
 20
1032.064018
 11
1196.422374
 21
1120.854835
  0
LINE
  8
CutLine
  6
CONTINUOUS
 62
8
 10
1094.208116
 20
1152.609827
 11
1064.634444
 21
1075.714727
  0
LINE
  8
CutLine
  6
CONTINUOUS
 62
8
 10
931.099384
 20
732.484502
 11
1000.845776
 21
795.422903
  0
LINE
  8
ValleyLine
  6
CONTINUOUS
 62
1
 10
924.833803
 20
870.777493
 11
864.431649
 21
816.271242
  0
LINE
  8
MountainLine
  6
CONTINUOUS
 62
5
 10
1230.656106
 20
1305.233780
 11
1123.855394
 21
1312.286690
  0
LINE
  8
CutLine
  6
CONTINUOUS
 62
8
 10
1123.855461
 20
1354.509830
 11
1123.855394
 21
1312.286690
  0
LINE
  8
CutLine
  6
CONTINUOUS
 62
8
 10
1230.656106
 20
1305.233780
 11
1230.656254
 21
1400.364966
  0
LINE
  8
CutLine
  6
CONTINUOUS
 62
8
 10
1230.656254
 20
1400.364966
 11
1123.855523
 21
1394.672705
  0
LINE
  8
CutLine
  6
CONTINUOUS
 62
8
 10
1123.855523
 20
1394.672705
 11
1123.855461
 21
1354.509830
  0
LINE
  8
MountainLine
  6
CONTINUOUS
 62
5
 10
1047.111177
 20
1600.884047
 11
1019.946359
 21
1557.397133
  0
LINE
  8
ValleyLine
  6
CONTINUOUS
 62
1
 10
1047.177409
 20
1537.882226
 11
1047.111177
 21
1600.884047
  0
LINE
  8
MountainLine
  6
CONTINUOUS
 62
5
 10
1019.946359
 20
1557.397133
 11
990.448309
 21
1510.175078
  0
LINE
  8
MountainLine
  6
CONTINUOUS
 62
5
 10
1058.235551
 20
1461.590568
 11
1093.195812
 21
1504.903517
  0
LINE
  8
CutLine
  6
CONTINUOUS
 62
8
 10
1093.195812
 20
1504.903517
 11
1047.177409
 21
1537.882226
  0
LINE
  8
ValleyLine
  6
CONTINUOUS
 62
1
 10
1047.177409
 20
1537.882226
 11
1064.992079
 21
1589.893005
  0
LINE
  8
MountainLine
  6
CONTINUOUS
 62
5
 10
1064.992079
 20
1589.893005
 11
1047.111177
 21
1600.884047
  0
LINE
  8
MountainLine
  6
CONTINUOUS
 62
5
 10
1197.159751
 20
1446.540935
 11
1186.677531
 21
1464.724794
  0
LINE
  8
ValleyLine
  6
CONTINUOUS
 62
1
 10
1186.677531
 20
1464.724794
 11
1134.184875
 21
1448.384518
  0
LINE
  8
ValleyLine
  6
CONTINUOUS
 62
1
 10
1134.184875
 20
1448.384518
 11
1197.159751
 21
1446.540935
  0
LINE
  8
CutLine
  6
CONTINUOUS
 62
8
 10
1134.184875
 20
1448.384518
 11
1102.517544
 21
1495.314987
  0
LINE
  8
CutLine
  6
CONTINUOUS
 62
8
 10
1102.517544
 20
1495.314987
 11
1058.235551
 21
1461.590568
  0
LINE
  8
CutLine
  6
CONTINUOUS
 62
8
 10
1152.923786
 20
1420.613760
 11
1197.159751
 21
1446.540935
  0
LINE
  8
CutLine
  6
CONTINUOUS
 62
8
 10
1104.888334
 20
1392.459667
 11
1152.923786
 21
1420.613760
  0
LINE
  8
CutLine
  6
CONTINUOUS
 62
8
 10
833.522442
 20
1318.566756
 11
893.993080
 21
1342.197211
  0
LINE
  8
CutLine
  6
CONTINUOUS
 62
8
 10
833.335558
 20
1342.805793
 11
833.522442
 21
1318.566756
  0
LINE
  8
CutLine
  6
CONTINUOUS
 62
8
 10
834.064155
 20
1317.224818
 11
850.757094
 21
1299.648940
  0
LINE
  8
MountainLine
  6
CONTINUOUS
 62
5
 10
893.993080
 20
1342.197211
 11
834.064155
 21
1317.224818
  0
LINE
  8
CutLine
  6
CONTINUOUS
 62
8
 10
846.452628
 20
1374.173921
 11
833.335558
 21
1342.805793
  0
LINE
  8
MountainLine
  6
CONTINUOUS
 62
5
 10
873.261763
 20
1394.389149
 11
846.452628
 21
1374.173921
  0
LINE
  8
CutLine
  6
CONTINUOUS
 62
8
 10
937.700603
 20
1384.260962
 11
906.634942
 21
1398.079125
  0
LINE
  8
CutLine
  6
CONTINUOUS
 62
8
 10
906.634942
 20
1398.079125
 11
873.261763
 21
1394.389149
  0
LINE
  8
CutLine
  6
CONTINUOUS
 62
8
 10
954.196604
 20
1366.500146
 11
937.700603
 21
1384.260962
  0
LINE
  8
MountainLine
  6
CONTINUOUS
 62
5
 10
881.974840
 20
1286.177875
 11
915.304820
 21
1290.239578
  0
LINE
  8
CutLine
  6
CONTINUOUS
 62
8
 10
941.886983
 20
1310.752349
 11
954.653624
 21
1342.264719
  0
LINE
  8
CutLine
  6
CONTINUOUS
 62
8
 10
915.304820
 20
1290.239578
 11
941.886983
 21
1310.752349
  0
LINE
  8
CutLine
  6
CONTINUOUS
 62
8
 10
954.653624
 20
1342.264719
 11
954.196604
 21
1366.500146
  0
LINE
  8
CutLine
  6
CONTINUOUS
 62
8
 10
850.757094
 20
1299.648940
 11
881.974840
 21
1286.177875
  0
LINE
  8
MountainLine
  6
CONTINUOUS
 62
5
 10
808.394304
 20
1304.032961
 11
839.011479
 21
1266.869669
  0
LINE
  8
MountainLine
  6
CONTINUOUS
 62
5
 10
839.011479
 20
1266.869669
 11
850.524526
 21
1299.096660
  0
LINE
  8
MountainLine
  6
CONTINUOUS
 62
5
 10
850.524526
 20
1299.096660
 11
833.253680
 21
1316.104999
  0
LINE
  8
MountainLine
  6
CONTINUOUS
 62
5
 10
833.253680
 20
1316.104999
 11
808.394304
 21
1304.032961
  0
LINE
  8
MountainLine
  6
CONTINUOUS
 62
5
 10
986.619789
 20
1326.030699
 11
983.123253
 21
1374.054581
  0
LINE
  8
MountainLine
  6
CONTINUOUS
 62
5
 10
983.123253
 20
1374.054581
 11
956.808599
 21
1365.612844
  0
LINE
  8
MountainLine
  6
CONTINUOUS
 62
5
 10
956.808599
 20
1365.612844
 11
956.036083
 21
1341.385422
  0
LINE
  8
MountainLine
  6
CONTINUOUS
 62
5
 10
956.036083
 20
1341.385422
 11
986.619789
 21
1326.030699
  0
LINE
  8
MountainLine
  6
CONTINUOUS
 62
5
 10
929.637652
 20
1254.478808
 11
967.282886
 21
1282.573032
  0
LINE
  8
MountainLine
  6
CONTINUOUS
 62
5
 10
967.282886
 20
1282.573032
 11
942.213923
 21
1310.321544
  0
LINE
  8
MountainLine
  6
CONTINUOUS
 62
5
 10
967.282886
 20
1282.573032
 11
986.619789
 21
1326.030699
  0
LINE
  8
MountainLine
  6
CONTINUOUS
 62
5
 10
956.036083
 20
1341.385422
 11
942.213923
 21
1310.321544
  0
LINE
  8
MountainLine
  6
CONTINUOUS
 62
5
 10
942.213923
 20
1310.321544
 11
915.304820
 21
1290.239578
  0
LINE
  8
MountainLine
  6
CONTINUOUS
 62
5
 10
915.304820
 20
1290.239578
 11
929.637652
 21
1254.478808
  0
LINE
  8
MountainLine
  6
CONTINUOUS
 62
5
 10
881.974840
 20
1286.177875
 11
850.524526
 21
1299.096660
  0
LINE
  8
MountainLine
  6
CONTINUOUS
 62
5
 10
839.011479
 20
1266.869669
 11
883.009752
 21
1248.796571
  0
LINE
  8
MountainLine
  6
CONTINUOUS
 62
5
 10
883.009752
 20
1248.796571
 11
881.974840
 21
1286.177875
  0
LINE
  8
CutLine
  6
CONTINUOUS
 62
8
 10
805.888295
 20
1310.240877
 11
832.161688
 21
1318.810095
  0
LINE
  8
MountainLine
  6
CONTINUOUS
 62
5
 10
832.161688
 20
1318.810095
 11
832.784757
 21
1343.041843
  0
LINE
  8
MountainLine
  6
CONTINUOUS
 62
5
 10
832.784757
 20
1343.041843
 11
802.125265
 21
1358.244640
  0
LINE
  8
MountainLine
  6
CONTINUOUS
 62
5
 10
802.125265
 20
1358.244640
 11
805.888295
 21
1310.240877
  0
LINE
  8
MountainLine
  6
CONTINUOUS
 62
5
 10
832.784757
 20
1343.041843
 11
846.452628
 21
1374.173921
  0
LINE
  8
MountainLine
  6
CONTINUOUS
 62
5
 10
873.261763
 20
1394.389149
 11
858.751691
 21
1430.078370
  0
LINE
  8
MountainLine
  6
CONTINUOUS
 62
5
 10
821.246309
 20
1401.797717
 11
846.452628
 21
1374.173921
  0
LINE
  8
MountainLine
  6
CONTINUOUS
 62
5
 10
821.246309
 20
1401.797717
 11
802.125265
 21
1358.244640
  0
LINE
  8
CutLine
  6
CONTINUOUS
 62
8
 10
955.460606
 20
1368.952108
 11
980.261178
 21
1381.144545
  0
LINE
  8
MountainLine
  6
CONTINUOUS
 62
5
 10
980.261178
 20
1381.144545
 11
949.438226
 21
1418.137311
  0
LINE
  8
MountainLine
  6
CONTINUOUS
 62
5
 10
949.438226
 20
1418.137311
 11
938.085198
 21
1385.853583
  0
LINE
  8
MountainLine
  6
CONTINUOUS
 62
5
 10
938.085198
 20
1385.853583
 11
955.460606
 21
1368.952108
  0
LINE
  8
MountainLine
  6
CONTINUOUS
 62
5
 10
873.261763
 20
1394.389149
 11
906.571181
 21
1398.616169
  0
LINE
  8
MountainLine
  6
CONTINUOUS
 62
5
 10
906.571181
 20
1398.616169
 11
905.350825
 21
1435.991882
  0
LINE
  8
MountainLine
  6
CONTINUOUS
 62
5
 10
949.438226
 20
1418.137311
 11
905.350825
 21
1435.991882
  0
LINE
  8
MountainLine
  6
CONTINUOUS
 62
5
 10
906.571181
 20
1398.616169
 11
938.085198
 21
1385.853583
  0
LINE
  8
MountainLine
  6
CONTINUOUS
 62
5
 10
830.202547
 20
923.799767
 11
830.372671
 21
977.251597
  0
LINE
  8
CutLine
  6
CONTINUOUS
 62
8
 10
830.372671
 20
977.251597
 11
779.533636
 21
961.875472
  0
LINE
  8
CutLine
  6
CONTINUOUS
 62
8
 10
779.533636
 20
961.875472
 11
830.202547
 21
923.799767
  0
LINE
  8
CutLine
  6
CONTINUOUS
 62
8
 10
871.064611
 20
1010.591670
 11
830.372671
 21
977.251597
  0
LINE
  8
MountainLine
  6
CONTINUOUS
 62
5
 10
830.202547
 20
923.799767
 11
886.971472
 21
916.362416
  0
LINE
  8
CutLine
  6
CONTINUOUS
 62
8
 10
1053.579064
 20
1210.695744
 11
1004.243188
 21
1250.483545
  0
LINE
  8
CutLine
  6
CONTINUOUS
 62
8
 10
1004.243188
 20
1250.483545
 11
1001.800203
 21
1197.426347
  0
LINE
  8
MountainLine
  6
CONTINUOUS
 62
5
 10
1001.800203
 20
1197.426347
 11
1053.579064
 21
1210.695744
  0
LINE
  8
CutLine
  6
CONTINUOUS
 62
8
 10
1001.800203
 20
1197.426347
 11
979.453816
 21
1149.802486
  0
LINE
  8
CutLine
  6
CONTINUOUS
 62
8
 10
1074.707137
 20
1157.482687
 11
1053.579064
 21
1210.695744
  0
LINE
  8
MountainLine
  6
CONTINUOUS
 62
5
 10
1064.992079
 20
1589.893005
 11
1077.283337
 21
1550.228076
  0
LINE
  8
MountainLine
  6
CONTINUOUS
 62
5
 10
1077.283337
 20
1550.228076
 11
1096.307379
 21
1576.710448
  0
LINE
  8
MountainLine
  6
CONTINUOUS
 62
5
 10
1096.307379
 20
1576.710448
 11
1064.992079
 21
1589.893005
  0
LINE
  8
MountainLine
  6
CONTINUOUS
 62
5
 10
1047.177409
 20
1537.882226
 11
1077.283337
 21
1550.228076
  0
LINE
  8
MountainLine
  6
CONTINUOUS
 62
5
 10
1186.677531
 20
1464.724794
 11
1174.383680
 21
1496.399523
  0
LINE
  8
MountainLine
  6
CONTINUOUS
 62
5
 10
1174.383680
 20
1496.399523
 11
1147.375151
 21
1478.130163
  0
LINE
  8
MountainLine
  6
CONTINUOUS
 62
5
 10
1147.375151
 20
1478.130163
 11
1186.677531
 21
1464.724794
  0
LINE
  8
MountainLine
  6
CONTINUOUS
 62
5
 10
1147.375151
 20
1478.130163
 11
1134.184875
 21
1448.384518
  0
LINE
  8
CutLine
  6
CONTINUOUS
 62
8
 10
924.833803
 20
870.777493
 11
872.059597
 21
892.979027
  0
LINE
  8
MountainLine
  6
CONTINUOUS
 62
5
 10
872.059597
 20
892.979027
 11
838.180295
 21
865.171999
  0
LINE
  8
MountainLine
  6
CONTINUOUS
 62
5
 10
838.180295
 20
865.171999
 11
864.431649
 21
816.271242
  0
LINE
  8
MountainLine
  6
CONTINUOUS
 62
5
 10
903.723085
 20
1200.440072
 11
938.953971
 21
1160.693133
  0
LINE
  8
CutLine
  6
CONTINUOUS
 62
8
 10
938.953971
 20
1160.693133
 11
928.852986
 21
1203.412250
  0
LINE
  8
MountainLine
  6
CONTINUOUS
 62
5
 10
872.059597
 20
892.979027
 11
810.196051
 21
906.763059
  0
LINE
  8
CutLine
  6
CONTINUOUS
 62
8
 10
810.196051
 20
906.763059
 11
838.180295
 21
865.171999
  0
LINE
  8
CutLine
  6
CONTINUOUS
 62
8
 10
1443.658687
 20
1124.744981
 11
1450.993889
 21
1111.559409
  0
LINE
  8
MountainLine
  6
CONTINUOUS
 62
5
 10
1450.993889
 20
1111.559409
 11
1511.422540
 21
1139.303403
  0
LINE
  8
ValleyLine
  6
CONTINUOUS
 62
1
 10
1511.422540
 20
1139.303403
 11
1443.658687
 21
1124.744981
  0
LINE
  8
CutLine
  6
CONTINUOUS
 62
8
 10
1511.422540
 20
1139.303403
 11
1504.692098
 21
1152.164890
  0
LINE
  8
MountainLine
  6
CONTINUOUS
 62
5
 10
1504.692098
 20
1152.164890
 11
1443.658687
 21
1124.744981
  0
LINE
  8
MountainLine
  6
CONTINUOUS
 62
5
 10
1511.422540
 20
1139.303403
 11
1451.367884
 21
1100.208172
  0
LINE
  8
CutLine
  6
CONTINUOUS
 62
8
 10
1515.748090
 20
1129.797882
 11
1511.422540
 21
1139.303403
  0
LINE
  8
CutLine
  6
CONTINUOUS
 62
8
 10
1450.993889
 20
1111.559409
 11
1451.367884
 21
1100.208172
  0
LINE
  8
MountainLine
  6
CONTINUOUS
 62
5
 10
1454.418492
 20
1137.955201
 11
1443.658687
 21
1124.744981
  0
LINE
  8
MountainLine
  6
CONTINUOUS
 62
5
 10
1504.692098
 20
1152.164890
 11
1454.418492
 21
1137.955201
  0
LINE
  8
CutLine
  6
CONTINUOUS
 62
8
 10
1504.692098
 20
1152.164890
 11
1499.443712
 21
1159.888884
  0
LINE
  8
ValleyLine
  6
CONTINUOUS
 62
1
 10
1499.443712
 20
1159.888884
 11
1454.418492
 21
1137.955201
  0
LINE
  8
MountainLine
  6
CONTINUOUS
 62
5
 10
823.692492
 20
820.930739
 11
838.180295
 21
865.171999
  0
LINE
  8
ValleyLine
  6
CONTINUOUS
 62
1
 10
838.180295
 20
865.171999
 11
805.965410
 21
865.103034
  0
LINE
  8
ValleyLine
  6
CONTINUOUS
 62
1
 10
805.965410
 20
865.103034
 11
823.692492
 21
820.930739
  0
LINE
  8
ValleyLine
  6
CONTINUOUS
 62
1
 10
823.692492
 20
820.930739
 11
864.431649
 21
816.271242
  0
LINE
  8
MountainLine
  6
CONTINUOUS
 62
5
 10
838.180295
 20
865.171999
 11
805.127746
 21
902.861033
  0
LINE
  8
CutLine
  6
CONTINUOUS
 62
8
 10
805.127746
 20
902.861033
 11
805.965410
 21
865.103034
  0
LINE
  8
CutLine
  6
CONTINUOUS
 62
8
 10
770.931613
 20
879.209813
 11
785.130121
 21
846.337222
  0
LINE
  8
MountainLine
  6
CONTINUOUS
 62
5
 10
785.130121
 20
846.337222
 11
805.965410
 21
865.103034
  0
LINE
  8
ValleyLine
  6
CONTINUOUS
 62
1
 10
805.965410
 20
865.103034
 11
770.931613
 21
879.209813
  0
LINE
  8
ValleyLine
  6
CONTINUOUS
 62
1
 10
797.360935
 20
806.347365
 11
805.965410
 21
865.103034
  0
LINE
  8
MountainLine
  6
CONTINUOUS
 62
5
 10
785.130121
 20
846.337222
 11
797.360935
 21
806.347365
  0
LINE
  8
ValleyLine
  6
CONTINUOUS
 62
1
 10
797.360935
 20
806.347365
 11
823.692492
 21
820.930739
  0
LINE
  8
ValleyLine
  6
CONTINUOUS
 62
1
 10
767.349682
 20
833.441253
 11
785.130121
 21
846.337222
  0
LINE
  8
MountainLine
  6
CONTINUOUS
 62
5
 10
785.130121
 20
846.337222
 11
767.209448
 21
877.338098
  0
LINE
  8
MountainLine
  6
CONTINUOUS
 62
5
 10
767.209448
 20
877.338098
 11
767.349682
 21
833.441253
  0
LINE
  8
ValleyLine
  6
CONTINUOUS
 62
1
 10
764.357882
 20
782.456375
 11
797.360935
 21
806.347365
  0
LINE
  8
MountainLine
  6
CONTINUOUS
 62
5
 10
785.130121
 20
846.337222
 11
764.357882
 21
782.456375
  0
LINE
  8
MountainLine
  6
CONTINUOUS
 62
5
 10
767.349682
 20
833.441253
 11
764.357882
 21
782.456375
  0
LINE
  8
CutLine
  6
CONTINUOUS
 62
8
 10
634.786030
 20
327.026126
 11
632.288816
 21
295.411055
  0
LINE
  8
MountainLine
  6
CONTINUOUS
 62
5
 10
632.288816
 20
295.411055
 11
708.839596
 21
289.064699
  0
LINE
  8
CutLine
  6
CONTINUOUS
 62
8
 10
708.839596
 20
289.064699
 11
712.110464
 21
319.015162
  0
LINE
  8
MountainLine
  6
CONTINUOUS
 62
5
 10
712.110464
 20
319.015162
 11
634.786030
 21
327.026126
  0
LINE
  8
MountainLine
  6
CONTINUOUS
 62
5
 10
682.889593
 20
274.579510
 11
708.839596
 21
289.064699
  0
LINE
  8
ValleyLine
  6
CONTINUOUS
 62
1
 10
632.288816
 20
295.411055
 11
682.889593
 21
274.579510
  0
LINE
  8
MountainLine
  6
CONTINUOUS
 62
5
 10
634.742659
 20
178.042516
 11
663.112178
 21
229.203926
  0
LINE
  8
ValleyLine
  6
CONTINUOUS
 62
1
 10
663.112178
 20
229.203926
 11
637.082856
 21
244.161855
  0
LINE
  8
ValleyLine
  6
CONTINUOUS
 62
1
 10
637.082856
 20
244.161855
 11
634.742659
 21
178.042516
  0
LINE
  8
MountainLine
  6
CONTINUOUS
 62
5
 10
634.478027
 20
282.931275
 11
637.082856
 21
244.161855
  0
LINE
  8
MountainLine
  6
CONTINUOUS
 62
5
 10
632.288816
 20
295.411055
 11
634.478027
 21
282.931275
  0
LINE
  8
MountainLine
  6
CONTINUOUS
 62
5
 10
663.112178
 20
229.203926
 11
682.889593
 21
274.579510
  0
LINE
  8
MountainLine
  6
CONTINUOUS
 62
5
 10
711.435200
 20
382.115649
 11
633.296910
 21
386.625388
  0
LINE
  8
MountainLine
  6
CONTINUOUS
 62
5
 10
633.296910
 20
386.625388
 11
634.786030
 21
327.026126
  0
LINE
  8
MountainLine
  6
CONTINUOUS
 62
5
 10
712.110464
 20
319.015162
 11
711.435200
 21
382.115649
  0
LINE
  8
ValleyLine
  6
CONTINUOUS
 62
1
 10
640.985958
 20
430.744457
 11
712.697366
 21
412.893345
  0
LINE
  8
MountainLine
  6
CONTINUOUS
 62
5
 10
712.697366
 20
412.893345
 11
690.112341
 21
430.572514
  0
LINE
  8
MountainLine
  6
CONTINUOUS
 62
5
 10
690.112341
 20
430.572514
 11
640.985958
 21
430.744457
  0
LINE
  8
CutLine
  6
CONTINUOUS
 62
8
 10
635.637191
 20
418.910509
 11
633.296910
 21
386.625388
  0
LINE
  8
CutLine
  6
CONTINUOUS
 62
8
 10
711.435200
 20
382.115649
 11
712.697366
 21
412.893345
  0
LINE
  8
MountainLine
  6
CONTINUOUS
 62
5
 10
712.697366
 20
412.893345
 11
635.637191
 21
418.910509
  0
LINE
  8
CutLine
  6
CONTINUOUS
 62
8
 10
640.985958
 20
430.744457
 11
635.637191
 21
418.910509
  0
LINE
  8
MountainLine
  6
CONTINUOUS
 62
5
 10
638.489513
 20
469.689662
 11
640.985958
 21
430.744457
  0
LINE
  8
ValleyLine
  6
CONTINUOUS
 62
1
 10
690.112341
 20
430.572514
 11
638.489513
 21
469.689662
  0
LINE
  8
MountainLine
  6
CONTINUOUS
 62
5
 10
690.112341
 20
430.572514
 11
679.112534
 21
478.833200
  0
LINE
  8
MountainLine
  6
CONTINUOUS
 62
5
 10
679.112534
 20
478.833200
 11
638.489513
 21
469.689662
  0
LINE
  8
MountainLine
  6
CONTINUOUS
 62
5
 10
679.112534
 20
478.833200
 11
657.165086
 21
534.525365
  0
LINE
  8
CutLine
  6
CONTINUOUS
 62
8
 10
657.165086
 20
534.525365
 11
638.489513
 21
469.689662
  0
LINE
  8
ValleyLine
  6
CONTINUOUS
 62
1
 10
892.232165
 20
322.675981
 11
905.619617
 21
381.435585
  0
LINE
  8
MountainLine
  6
CONTINUOUS
 62
5
 10
905.619617
 20
381.435585
 11
898.562973
 21
376.257938
  0
LINE
  8
ValleyLine
  6
CONTINUOUS
 62
1
 10
898.562973
 20
376.257938
 11
892.232165
 21
322.675981
  0
LINE
  8
CutLine
  6
CONTINUOUS
 62
8
 10
770.281971
 20
390.673319
 11
742.018215
 21
385.795160
  0
LINE
  8
MountainLine
  6
CONTINUOUS
 62
5
 10
742.018215
 20
385.795160
 11
742.018215
 21
322.655938
  0
LINE
  8
CutLine
  6
CONTINUOUS
 62
8
 10
742.018215
 20
322.655938
 11
770.281966
 21
331.842001
  0
LINE
  8
ValleyLine
  6
CONTINUOUS
 62
1
 10
770.281966
 20
331.842001
 11
770.281971
 21
390.673319
  0
LINE
  8
CutLine
  6
CONTINUOUS
 62
8
 10
819.779812
 20
390.442548
 11
770.281971
 21
390.673319
  0
LINE
  8
MountainLine
  6
CONTINUOUS
 62
5
 10
877.783532
 20
324.002824
 11
878.513910
 21
378.883418
  0
LINE
  8
CutLine
  6
CONTINUOUS
 62
8
 10
878.513910
 20
378.883418
 11
819.779812
 21
390.442548
  0
LINE
  8
MountainLine
  6
CONTINUOUS
 62
5
 10
819.779812
 20
390.442548
 11
819.779809
 21
331.611220
  0
LINE
  8
CutLine
  6
CONTINUOUS
 62
8
 10
819.779809
 20
331.611220
 11
877.783532
 21
324.002824
  0
LINE
  8
CutLine
  6
CONTINUOUS
 62
8
 10
770.281966
 20
331.842001
 11
819.779809
 21
331.611220
  0
LINE
  8
MountainLine
  6
CONTINUOUS
 62
5
 10
877.783532
 20
324.002824
 11
893.379200
 21
271.921584
  0
LINE
  8
ValleyLine
  6
CONTINUOUS
 62
1
 10
893.379200
 20
271.921584
 11
892.232165
 21
322.675981
  0
LINE
  8
MountainLine
  6
CONTINUOUS
 62
5
 10
892.232165
 20
322.675981
 11
878.513910
 21
378.883418
  0
LINE
  8
CutLine
  6
CONTINUOUS
 62
8
 10
898.562973
 20
376.257938
 11
878.513910
 21
378.883418
  0
LINE
  8
MountainLine
  6
CONTINUOUS
 62
5
 10
712.110464
 20
319.015162
 11
742.018215
 21
322.655938
  0
LINE
  8
MountainLine
  6
CONTINUOUS
 62
5
 10
742.018215
 20
385.795160
 11
711.435200
 21
382.115649
  0
LINE
  8
ValleyLine
  6
CONTINUOUS
 62
1
 10
551.781249
 20
328.228215
 11
588.205989
 21
388.651511
  0
LINE
  8
CutLine
  6
CONTINUOUS
 62
8
 10
588.205989
 20
388.651511
 11
549.812499
 21
381.658574
  0
LINE
  8
ValleyLine
  6
CONTINUOUS
 62
1
 10
549.812499
 20
381.658574
 11
551.781249
 21
328.228215
  0
LINE
  8
MountainLine
  6
CONTINUOUS
 62
5
 10
603.259660
 20
330.466590
 11
634.786030
 21
327.026126
  0
LINE
  8
MountainLine
  6
CONTINUOUS
 62
5
 10
633.296910
 20
386.625388
 11
601.112850
 21
390.088374
  0
LINE
  8
MountainLine
  6
CONTINUOUS
 62
5
 10
601.112850
 20
390.088374
 11
603.259660
 21
330.466590
  0
LINE
  8
MountainLine
  6
CONTINUOUS
 62
5
 10
601.112850
 20
390.088374
 11
588.205989
 21
388.651511
  0
LINE
  8
ValleyLine
  6
CONTINUOUS
 62
1
 10
588.205989
 20
388.651511
 11
590.603416
 21
329.869064
  0
LINE
  8
CutLine
  6
CONTINUOUS
 62
8
 10
551.781249
 20
328.228215
 11
590.603416
 21
329.869064
  0
LINE
  8
CutLine
  6
CONTINUOUS
 62
8
 10
590.603416
 20
329.869064
 11
603.259660
 21
330.466590
  0
LINE
  8
MountainLine
  6
CONTINUOUS
 62
5
 10
669.086775
 20
1596.440612
 11
660.030447
 21
1598.982040
  0
LINE
  8
MountainLine
  6
CONTINUOUS
 62
5
 10
660.030447
 20
1598.982040
 11
660.111290
 21
1544.873139
  0
LINE
  8
MountainLine
  6
CONTINUOUS
 62
5
 10
660.111290
 20
1544.873139
 11
669.865119
 21
1549.524444
  0
LINE
  8
ValleyLine
  6
CONTINUOUS
 62
1
 10
669.865119
 20
1549.524444
 11
669.086775
 21
1596.440612
  0
LINE
  8
ValleyLine
  6
CONTINUOUS
 62
1
 10
645.895849
 20
1542.286995
 11
634.133630
 21
1597.444889
  0
LINE
  8
ValleyLine
  6
CONTINUOUS
 62
1
 10
634.133630
 20
1597.444889
 11
635.386833
 21
1542.433976
  0
LINE
  8
MountainLine
  6
CONTINUOUS
 62
5
 10
635.386833
 20
1542.433976
 11
645.895849
 21
1542.286995
  0
LINE
  8
MountainLine
  6
CONTINUOUS
 62
5
 10
645.895849
 20
1542.286995
 11
660.111290
 21
1544.873139
  0
LINE
  8
CutLine
  6
CONTINUOUS
 62
8
 10
660.030447
 20
1598.982040
 11
645.895849
 21
1599.516120
  0
LINE
  8
MountainLine
  6
CONTINUOUS
 62
5
 10
645.895849
 20
1599.516120
 11
645.895849
 21
1542.286995
  0
LINE
  8
CutLine
  6
CONTINUOUS
 62
8
 10
645.895849
 20
1599.516120
 11
634.133630
 21
1597.444889
  0
LINE
  8
MountainLine
  6
CONTINUOUS
 62
5
 10
973.852369
 20
508.255282
 11
922.013929
 21
532.561682
  0
LINE
  8
ValleyLine
  6
CONTINUOUS
 62
1
 10
922.013929
 20
532.561682
 11
922.013929
 21
451.202279
  0
LINE
  8
MountainLine
  6
CONTINUOUS
 62
5
 10
922.013929
 20
451.202279
 11
975.905357
 21
464.473746
  0
LINE
  8
MountainLine
  6
CONTINUOUS
 62
5
 10
975.905357
 20
464.473746
 11
973.852369
 21
508.255282
  0
LINE
  8
CutLine
  6
CONTINUOUS
 62
8
 10
975.905357
 20
464.473746
 11
1025.530919
 21
471.561614
  0
LINE
  8
MountainLine
  6
CONTINUOUS
 62
5
 10
1025.530919
 20
471.561614
 11
973.852369
 21
508.255282
  0
LINE
  8
ValleyLine
  6
CONTINUOUS
 62
1
 10
952.766149
 20
424.078666
 11
997.436322
 21
440.510825
  0
LINE
  8
ValleyLine
  6
CONTINUOUS
 62
1
 10
997.436322
 20
440.510825
 11
975.905357
 21
464.473746
  0
LINE
  8
MountainLine
  6
CONTINUOUS
 62
5
 10
975.905357
 20
464.473746
 11
952.766149
 21
424.078666
  0
LINE
  8
ValleyLine
  6
CONTINUOUS
 62
1
 10
922.013929
 20
451.202279
 11
952.766149
 21
424.078666
  0
LINE
  8
CutLine
  6
CONTINUOUS
 62
8
 10
997.436322
 20
440.510825
 11
1026.029491
 21
465.184682
  0
LINE
  8
MountainLine
  6
CONTINUOUS
 62
5
 10
1026.029491
 20
465.184682
 11
975.905357
 21
464.473746
  0
LINE
  8
ValleyLine
  6
CONTINUOUS
 62
1
 10
1031.380050
 20
423.952086
 11
997.436322
 21
440.510825
  0
LINE
  8
MountainLine
  6
CONTINUOUS
 62
5
 10
997.436322
 20
440.510825
 11
997.462849
 21
412.470427
  0
LINE
  8
MountainLine
  6
CONTINUOUS
 62
5
 10
997.462849
 20
412.470427
 11
1031.380050
 21
423.952086
  0
LINE
  8
ValleyLine
  6
CONTINUOUS
 62
1
 10
959.579949
 20
394.759765
 11
997.436322
 21
440.510825
  0
LINE
  8
ValleyLine
  6
CONTINUOUS
 62
1
 10
952.766149
 20
424.078666
 11
959.579949
 21
394.759765
  0
LINE
  8
MountainLine
  6
CONTINUOUS
 62
5
 10
959.579949
 20
394.759765
 11
997.462849
 21
412.470427
  0
LINE
  8
MountainLine
  6
CONTINUOUS
 62
5
 10
1002.321599
 20
391.049817
 11
1031.380050
 21
423.952086
  0
LINE
  8
ValleyLine
  6
CONTINUOUS
 62
1
 10
997.462849
 20
412.470427
 11
1002.321599
 21
391.049817
  0
ENDSEC
  0
EOF
